  0
SECTION
  2
HEADER
  9
$ACADVER
  1
AC1015
  9
$ACADMAINTVER
 70
     6
  9
$DWGCODEPAGE
  3
ANSI_1252
  9
$INSBASE
 10
0.0
 20
0.0
 30
0.0
  9
$EXTMIN
 10
0.0
 20
0.0
 30
0.0
  9
$EXTMAX
 10
279.4
 20
215.9
 30
0.0
  9
$LIMMIN
 10
0.0
 20
0.0
  9
$LIMMAX
 10
279.4
 20
215.9
  9
$ORTHOMODE
 70
     0
  9
$REGENMODE
 70
     1
  9
$FILLMODE
 70
     1
  9
$QTEXTMODE
 70
     0
  9
$MIRRTEXT
 70
     1
  9
$LTSCALE
 40
1.0
  9
$ATTMODE
 70
     1
  9
$TEXTSIZE
 40
3.5
  9
$TRACEWID
 40
1.0
  9
$TEXTSTYLE
  7
Standard
  9
$CLAYER
  8
0
  9
$CELTYPE
  6
ByLayer
  9
$CECOLOR
 62
   256
  9
$CELTSCALE
 40
1.0
  9
$DISPSILH
 70
     0
  9
$DIMSCALE
 40
1.0
  9
$DIMASZ
 40
3.302
  9
$DIMEXO
 40
1.0
  9
$DIMDLI
 40
3.75
  9
$DIMRND
 40
0.0
  9
$DIMDLE
 40
0.0
  9
$DIMEXE
 40
1.0
  9
$DIMTP
 40
0.0
  9
$DIMTM
 40
0.0
  9
$DIMTXT
 40
3.5
  9
$DIMCEN
 40
2.5
  9
$DIMTSZ
 40
0.0
  9
$DIMTOL
 70
     0
  9
$DIMLIM
 70
     0
  9
$DIMTIH
 70
     1
  9
$DIMTOH
 70
     1
  9
$DIMSE1
 70
     0
  9
$DIMSE2
 70
     0
  9
$DIMTAD
 70
     1
  9
$DIMZIN
 70
     0
  9
$DIMBLK
  1

  9
$DIMASO
 70
     1
  9
$DIMSHO
 70
     1
  9
$DIMPOST
  1

  9
$DIMAPOST
  1

  9
$DIMALT
 70
     0
  9
$DIMALTD
 70
     3
  9
$DIMALTF
 40
0.0393700787
  9
$DIMLFAC
 40
2.0
  9
$DIMTOFL
 70
     1
  9
$DIMTVP
 40
0.0
  9
$DIMTIX
 70
     0
  9
$DIMSOXD
 70
     0
  9
$DIMSAH
 70
     0
  9
$DIMBLK1
  1

  9
$DIMBLK2
  1

  9
$DIMSTYLE
  2
ISO-25
  9
$DIMCLRD
 70
     0
  9
$DIMCLRE
 70
     0
  9
$DIMCLRT
 70
     0
  9
$DIMTFAC
 40
1.0
  9
$DIMGAP
 40
1.524
  9
$DIMJUST
 70
     0
  9
$DIMSD1
 70
     0
  9
$DIMSD2
 70
     0
  9
$DIMTOLJ
 70
     0
  9
$DIMTZIN
 70
     0
  9
$DIMALTZ
 70
     0
  9
$DIMALTTZ
 70
     0
  9
$DIMUPT
 70
     0
  9
$DIMDEC
 70
     2
  9
$DIMTDEC
 70
     2
  9
$DIMALTU
 70
     2
  9
$DIMALTTD
 70
     3
  9
$DIMTXSTY
  7
Standard
  9
$DIMAUNIT
 70
     0
  9
$DIMADEC
 70
     2
  9
$DIMALTRND
 40
0.0
  9
$DIMAZIN
 70
     0
  9
$DIMDSEP
 70
    44
  9
$DIMATFIT
 70
     3
  9
$DIMFRAC
 70
     0
  9
$DIMLDRBLK
  1

  9
$DIMLUNIT
 70
     2
  9
$DIMLWD
 70
    -2
  9
$DIMLWE
 70
    -2
  9
$DIMTMOVE
 70
     0
  9
$LUNITS
 70
     2
  9
$LUPREC
 70
     2
  9
$SKETCHINC
 40
1.0
  9
$FILLETRAD
 40
10.0
  9
$AUNITS
 70
     0
  9
$AUPREC
 70
     2
  9
$MENU
  1
.
  9
$ELEVATION
 40
0.0
  9
$PELEVATION
 40
0.0
  9
$THICKNESS
 40
0.0
  9
$LIMCHECK
 70
     0
  9
$CHAMFERA
 40
0.0
  9
$CHAMFERB
 40
0.0
  9
$CHAMFERC
 40
0.0
  9
$CHAMFERD
 40
0.0
  9
$SKPOLY
 70
     0
  9
$TDCREATE
 40
2457892.437474329
  9
$TDUCREATE
 40
2457892.604140996
  9
$TDUPDATE
 40
2457892.437476447
  9
$TDUUPDATE
 40
2457892.604143113
  9
$TDINDWG
 40
0.0000000116
  9
$TDUSRTIMER
 40
0.0000000116
  9
$USRTIMER
 70
     1
  9
$ANGBASE
 50
0.0
  9
$ANGDIR
 70
     0
  9
$PDMODE
 70
     0
  9
$PDSIZE
 40
-1.0
  9
$PLINEWID
 40
0.0
  9
$SPLFRAME
 70
     0
  9
$SPLINETYPE
 70
     6
  9
$SPLINESEGS
 70
     8
  9
$HANDSEED
  5
15B
  9
$SURFTAB1
 70
     6
  9
$SURFTAB2
 70
     6
  9
$SURFTYPE
 70
     6
  9
$SURFU
 70
     6
  9
$SURFV
 70
     6
  9
$UCSBASE
  2

  9
$UCSNAME
  2

  9
$UCSORG
 10
0.0
 20
0.0
 30
0.0
  9
$UCSXDIR
 10
1.0
 20
0.0
 30
0.0
  9
$UCSYDIR
 10
0.0
 20
1.0
 30
0.0
  9
$UCSORTHOREF
  2

  9
$UCSORTHOVIEW
 70
     0
  9
$UCSORGTOP
 10
0.0
 20
0.0
 30
0.0
  9
$UCSORGBOTTOM
 10
0.0
 20
0.0
 30
0.0
  9
$UCSORGLEFT
 10
0.0
 20
0.0
 30
0.0
  9
$UCSORGRIGHT
 10
0.0
 20
0.0
 30
0.0
  9
$UCSORGFRONT
 10
0.0
 20
0.0
 30
0.0
  9
$UCSORGBACK
 10
0.0
 20
0.0
 30
0.0
  9
$PUCSBASE
  2

  9
$PUCSNAME
  2

  9
$PUCSORG
 10
0.0
 20
0.0
 30
0.0
  9
$PUCSXDIR
 10
1.0
 20
0.0
 30
0.0
  9
$PUCSYDIR
 10
0.0
 20
1.0
 30
0.0
  9
$PUCSORTHOREF
  2

  9
$PUCSORTHOVIEW
 70
     0
  9
$PUCSORGTOP
 10
0.0
 20
0.0
 30
0.0
  9
$PUCSORGBOTTOM
 10
0.0
 20
0.0
 30
0.0
  9
$PUCSORGLEFT
 10
0.0
 20
0.0
 30
0.0
  9
$PUCSORGRIGHT
 10
0.0
 20
0.0
 30
0.0
  9
$PUCSORGFRONT
 10
0.0
 20
0.0
 30
0.0
  9
$PUCSORGBACK
 10
0.0
 20
0.0
 30
0.0
  9
$USERI1
 70
     0
  9
$USERI2
 70
     0
  9
$USERI3
 70
     0
  9
$USERI4
 70
     0
  9
$USERI5
 70
     0
  9
$USERR1
 40
0.0
  9
$USERR2
 40
0.0
  9
$USERR3
 40
0.0
  9
$USERR4
 40
0.0
  9
$USERR5
 40
0.0
  9
$WORLDVIEW
 70
     1
  9
$SHADEDGE
 70
     3
  9
$SHADEDIF
 70
    70
  9
$TILEMODE
 70
     1
  9
$MAXACTVP
 70
    64
  9
$PINSBASE
 10
0.0
 20
0.0
 30
0.0
  9
$PLIMCHECK
 70
     0
  9
$PEXTMIN
 10
1.0000000000E+20
 20
1.0000000000E+20
 30
1.0000000000E+20
  9
$PEXTMAX
 10
-1.0000000000E+20
 20
-1.0000000000E+20
 30
-1.0000000000E+20
  9
$PLIMMIN
 10
0.0
 20
0.0
  9
$PLIMMAX
 10
420.0
 20
297.0
  9
$UNITMODE
 70
     0
  9
$VISRETAIN
 70
     1
  9
$PLINEGEN
 70
     0
  9
$PSLTSCALE
 70
     1
  9
$TREEDEPTH
 70
  3020
  9
$CMLSTYLE
  2
Standard
  9
$CMLJUST
 70
     0
  9
$CMLSCALE
 40
20.0
  9
$PROXYGRAPHICS
 70
     1
  9
$MEASUREMENT
 70
     1
  9
$CELWEIGHT
370
    -1
  9
$ENDCAPS
280
     0
  9
$JOINSTYLE
280
     0
  9
$LWDISPLAY
290
     1
  9
$INSUNITS
 70
     4
  9
$HYPERLINKBASE
  1

  9
$STYLESHEET
  1

  9
$XEDIT
290
     1
  9
$CEPSNTYPE
380
     0
  9
$PSTYLEMODE
290
     1
  9
$FINGERPRINTGUID
  2
{1F93BFF8-442F-4078-96EE-5807202564B4}
  9
$VERSIONGUID
  2
{FAEB1C32-E019-11D5-929B-00C0DF256EC4}
  9
$EXTNAMES
290
     1
  9
$PSVPSCALE
 40
0.0
  9
$OLESTARTUP
290
     0
  0
ENDSEC
  0
SECTION
  2
CLASSES
  0
CLASS
  1
ACDBDICTIONARYWDFLT
  2
AcDbDictionaryWithDefault
  3
ObjectDBX Classes
 90
        0
280
     0
281
     0
  0
CLASS
  1
VISUALSTYLE
  2
AcDbVisualStyle
  3
ObjectDBX Classes
 90
     4095
280
     0
281
     0
  0
CLASS
  1
MATERIAL
  2
AcDbMaterial
  3
ObjectDBX Classes
 90
     1153
280
     0
281
     0
  0
CLASS
  1
SCALE
  2
AcDbScale
  3
ObjectDBX Classes
 90
     1153
280
     0
281
     0
  0
CLASS
  1
TABLESTYLE
  2
AcDbTableStyle
  3
ObjectDBX Classes
 90
     4095
280
     0
281
     0
  0
CLASS
  1
MLEADERSTYLE
  2
AcDbMLeaderStyle
  3
ACDB_MLEADERSTYLE_CLASS
 90
     4095
280
     0
281
     0
  0
CLASS
  1
SUN
  2
AcDbSun
  3
SCENEOE
 90
     1153
280
     0
281
     0
  0
CLASS
  1
ACDBPLACEHOLDER
  2
AcDbPlaceHolder
  3
ObjectDBX Classes
 90
        0
280
     0
281
     0
  0
CLASS
  1
LAYOUT
  2
AcDbLayout
  3
ObjectDBX Classes
 90
        0
280
     0
281
     0
  0
ENDSEC
  0
SECTION
  2
TABLES
  0
TABLE
  2
VPORT
  5
8
330
0
100
AcDbSymbolTable
 70
     1
  0
VPORT
  5
29
330
8
100
AcDbSymbolTableRecord
100
AcDbViewportTableRecord
  2
*Active
 70
     0
 10
0.0
 20
0.0
 11
1.0
 21
1.0
 12
139.7
 22
107.95
 13
0.0
 23
0.0
 14
10.0
 24
10.0
 15
10.0
 25
10.0
 16
0.0
 26
0.0
 36
1.0
 17
0.0
 27
0.0
 37
0.0
 40
215.9
 41
1.2941176471
 42
50.0
 43
0.0
 44
0.0
 50
0.0
 51
0.0
 71
     0
 72
  2000
 73
     1
 74
     3
 75
     0
 76
     0
 77
     0
 78
     0
281
     0
 65
     1
110
0.0
120
0.0
130
0.0
111
1.0
121
0.0
131
0.0
112
0.0
122
1.0
132
0.0
 79
     0
146
0.0
  0
ENDTAB
  0
TABLE
  2
LTYPE
  5
5
330
0
100
AcDbSymbolTable
 70
     6
  0
LTYPE
  5
14
330
5
100
AcDbSymbolTableRecord
100
AcDbLinetypeTableRecord
  2
ByBlock
 70
     0
  3

 72
    65
 73
     0
 40
0.0
  0
LTYPE
  5
15
330
5
100
AcDbSymbolTableRecord
100
AcDbLinetypeTableRecord
  2
ByLayer
 70
     0
  3

 72
    65
 73
     0
 40
0.0
  0
LTYPE
  5
16
330
5
100
AcDbSymbolTableRecord
100
AcDbLinetypeTableRecord
  2
Continuous
 70
     0
  3
Solid line
 72
    65
 73
     0
 40
0.0
  0
LTYPE
  5
6E
330
5
100
AcDbSymbolTableRecord
100
AcDbLinetypeTableRecord
  2
HIDDEN
 70
     0
  3
Hidden __ __ __ __ __ __ __ __ __ __ __ __ __ __
 72
    65
 73
     2
 40
1.905
 49
1.27
 74
     0
 49
-0.635
 74
     0
  0
LTYPE
  5
6F
330
5
100
AcDbSymbolTableRecord
100
AcDbLinetypeTableRecord
  2
PHANTOM
 70
     0
  3
Phantom ______  __  __  ______  __  __  ______
 72
    65
 73
     6
 40
12.7
 49
6.35
 74
     0
 49
-1.27
 74
     0
 49
1.27
 74
     0
 49
-1.27
 74
     0
 49
1.27
 74
     0
 49
-1.27
 74
     0
  0
LTYPE
  5
70
330
5
100
AcDbSymbolTableRecord
100
AcDbLinetypeTableRecord
  2
CENTER
 70
     0
  3
Center ____ _ ____ _ ____ _ ____ _ ____ _ ____
 72
    65
 73
     4
 40
10.16
 49
6.35
 74
     0
 49
-1.27
 74
     0
 49
1.27
 74
     0
 49
-1.27
 74
     0
  0
LTYPE
  5
71
330
5
100
AcDbSymbolTableRecord
100
AcDbLinetypeTableRecord
  2
CENTERX2
 70
     0
  3
Center (2x) ________  __  ________  __  _____
 72
    65
 73
     4
 40
20.32
 49
12.7
 74
     0
 49
-2.54
 74
     0
 49
2.54
 74
     0
 49
-2.54
 74
     0
  0
LTYPE
  5
72
330
5
100
AcDbSymbolTableRecord
100
AcDbLinetypeTableRecord
  2
DOT2
 70
     0
  3
Dot (.5x) ........................................
 72
    65
 73
     2
 40
0.635
 49
0.0
 74
     0
 49
-0.635
 74
     0
  0
ENDTAB
  0
TABLE
  2
LAYER
  5
2
330
0
100
AcDbSymbolTable
 70
     1
  0
LAYER
  5
10
330
2
100
AcDbSymbolTableRecord
100
AcDbLayerTableRecord
  2
0
 70
     0
 62
     7
  6
Continuous
370
    -3
390
F
  0
ENDTAB
  0
TABLE
  2
STYLE
  5
3
330
0
100
AcDbSymbolTable
 70
     2
  0
STYLE
  5
11
330
3
100
AcDbSymbolTableRecord
100
AcDbTextStyleTableRecord
  2
Standard
 70
     0
 40
0.0
 41
1.0
 50
0.0
 71
     0
 42
3.5
  3
txt
  4

  0
STYLE
  5
73
330
3
100
AcDbSymbolTableRecord
100
AcDbTextStyleTableRecord
  2
SLDTEXTSTYLE0
 70
     0
 40
0.0
 41
0.75
 50
0.0
 71
     0
 42
3.5
  3
TXT
  4

  0
ENDTAB
  0
TABLE
  2
VIEW
  5
6
330
0
100
AcDbSymbolTable
 70
     0
  0
ENDTAB
  0
TABLE
  2
UCS
  5
7
330
0
100
AcDbSymbolTable
 70
     0
  0
ENDTAB
  0
TABLE
  2
APPID
  5
9
330
0
100
AcDbSymbolTable
 70
     1
  0
APPID
  5
12
330
9
100
AcDbSymbolTableRecord
100
AcDbRegAppTableRecord
  2
ACAD
 70
     0
  0
ENDTAB
  0
TABLE
  2
DIMSTYLE
  5
A
330
0
100
AcDbSymbolTable
 70
     1
100
AcDbDimStyleTable
  0
DIMSTYLE
105
27
330
A
100
AcDbSymbolTableRecord
100
AcDbDimStyleTableRecord
  2
ISO-25
 70
     0
 41
2.5
 42
0.625
 43
3.75
 44
1.25
 73
     0
 74
     0
 77
     1
 78
     8
140
2.5
141
2.5
143
0.0393700787
147
0.625
171
     3
172
     1
178
     0
271
     2
272
     2
274
     3
278
    44
283
     0
284
     8
340
11
  0
ENDTAB
  0
TABLE
  2
BLOCK_RECORD
  5
1
330
0
100
AcDbSymbolTable
 70
     2
  0
BLOCK_RECORD
  5
1F
330
1
100
AcDbSymbolTableRecord
100
AcDbBlockTableRecord
  2
*Model_Space
340
22
  0
BLOCK_RECORD
  5
1B
330
1
100
AcDbSymbolTableRecord
100
AcDbBlockTableRecord
  2
*Paper_Space
340
1E
  0
BLOCK_RECORD
  5
23
330
1
100
AcDbSymbolTableRecord
100
AcDbBlockTableRecord
  2
*Paper_Space0
340
26
  0
BLOCK_RECORD
  5
14F
330
1
100
AcDbSymbolTableRecord
100
AcDbBlockTableRecord
  2
SW_CENTERMARKSYMBOL_0
340
0
102
{BLKREFS
331
15A
102
}
  0
ENDTAB
  0
ENDSEC
  0
SECTION
  2
BLOCKS
  0
BLOCK
  5
20
330
1F
100
AcDbEntity
  8
0
100
AcDbBlockBegin
  2
*Model_Space
 70
     0
 10
0.0
 20
0.0
 30
0.0
  3
*Model_Space
  1

  0
ENDBLK
  5
21
330
1F
100
AcDbEntity
  8
0
100
AcDbBlockEnd
  0
BLOCK
  5
1C
330
1B
100
AcDbEntity
 67
     1
  8
0
100
AcDbBlockBegin
  2
*Paper_Space
 70
     0
 10
0.0
 20
0.0
 30
0.0
  3
*Paper_Space
  1

  0
ENDBLK
  5
1D
330
1B
100
AcDbEntity
 67
     1
  8
0
100
AcDbBlockEnd
  0
BLOCK
  5
24
330
23
100
AcDbEntity
  8
0
100
AcDbBlockBegin
  2
*Paper_Space0
 70
     0
 10
0.0
 20
0.0
 30
0.0
  3
*Paper_Space0
  1

  0
ENDBLK
  5
25
330
23
100
AcDbEntity
  8
0
100
AcDbBlockEnd
  0
BLOCK
  5
150
330
14F
100
AcDbEntity
  8
0
100
AcDbBlockBegin
  2
SW_CENTERMARKSYMBOL_0
 70
     0
 10
0.0
 20
0.0
 30
0.0
  3
SW_CENTERMARKSYMBOL_0
  1

  0
LINE
  5
152
330
14F
100
AcDbEntity
  8
0
  6
Continuous
 62
     0
370
     0
100
AcDbLine
 10
0.0
 20
0.0
 30
0.0
 11
0.0
 21
2.5
 31
0.0
  0
LINE
  5
153
330
14F
100
AcDbEntity
  8
0
  6
Continuous
 62
     0
370
     0
100
AcDbLine
 10
0.0
 20
0.0
 30
0.0
 11
-2.5
 21
0.0
 31
0.0
  0
LINE
  5
154
330
14F
100
AcDbEntity
  8
0
  6
Continuous
 62
     0
370
     0
100
AcDbLine
 10
0.0
 20
0.0
 30
0.0
 11
0.0
 21
-2.5
 31
0.0
  0
LINE
  5
155
330
14F
100
AcDbEntity
  8
0
  6
Continuous
 62
     0
370
     0
100
AcDbLine
 10
0.0
 20
0.0
 30
0.0
 11
2.5
 21
0.0
 31
0.0
  0
LINE
  5
156
330
14F
100
AcDbEntity
  8
0
  6
Continuous
 62
     0
370
     0
100
AcDbLine
 10
0.0
 20
5.0
 30
0.0
 11
0.0
 21
7.25
 31
0.0
  0
LINE
  5
157
330
14F
100
AcDbEntity
  8
0
  6
Continuous
 62
     0
370
     0
100
AcDbLine
 10
-5.0
 20
0.0
 30
0.0
 11
-7.25
 21
0.0
 31
0.0
  0
LINE
  5
158
330
14F
100
AcDbEntity
  8
0
  6
Continuous
 62
     0
370
     0
100
AcDbLine
 10
0.0
 20
-5.0
 30
0.0
 11
0.0
 21
-10.6104015259
 31
0.0
  0
LINE
  5
159
330
14F
100
AcDbEntity
  8
0
  6
Continuous
 62
     0
370
     0
100
AcDbLine
 10
5.0
 20
0.0
 30
0.0
 11
7.25
 21
0.0
 31
0.0
  0
ENDBLK
  5
151
330
14F
100
AcDbEntity
  8
0
100
AcDbBlockEnd
  0
ENDSEC
  0
SECTION
  2
ENTITIES
  0
MTEXT
  5
74
330
1F
100
AcDbEntity
  8
0
  6
Continuous
 62
     7
370
     0
100
AcDbMText
 10
4.3012419945
 20
127.2421297277
 30
0.0
 40
6.8791666667
 41
0.0
 71
     1
 72
     1
  1
U2 Universal Screw  #6
  7
SLDTEXTSTYLE0
 73
     1
 44
1.0
  0
MTEXT
  5
75
330
1F
100
AcDbEntity
  8
0
  6
Continuous
 62
     7
370
     0
100
AcDbMText
 10
33.9948552173
 20
53.9874204078
 30
0.0
 40
3.5
 41
0.0
 71
     1
 72
     1
  1
1-1/2"
  7
SLDTEXTSTYLE0
 73
     1
 44
1.0
  0
MTEXT
  5
76
330
1F
100
AcDbEntity
  8
0
  6
Continuous
 62
     7
370
     0
100
AcDbMText
 10
24.4259589102
 20
47.7325535788
 30
0.0
 40
3.5
 41
0.0
 71
     1
 72
     1
  1
© U2Fasteners
  7
SLDTEXTSTYLE0
 73
     1
 44
1.0
  0
ARC
  5
77
330
1F
100
AcDbEntity
  8
0
  6
Continuous
 62
     7
370
    15
100
AcDbCircle
 10
35.2252708021
 20
97.1846652134
 30
0.0
 40
0.4000000000000083
100
AcDbArc
 50
162.4161382947
 51
230.0
  0
ARC
  5
78
330
1F
100
AcDbEntity
  8
0
  6
Continuous
 62
     7
370
    15
100
AcDbCircle
 10
41.08789144
 20
97.1846652134
 30
0.0
 40
0.4000000000000015
100
AcDbArc
 50
310.0
 51
17.5838617053
  0
ARC
  5
79
330
1F
100
AcDbEntity
  8
0
  6
Continuous
 62
     7
370
    15
100
AcDbCircle
 10
35.6065811211
 20
97.0638246546
 30
0.0
 40
0.8000000000000114
100
AcDbArc
 50
90.0
 51
162.4161382947
  0
ARC
  5
7A
330
1F
100
AcDbEntity
  8
0
  6
Continuous
 62
     7
370
    15
100
AcDbCircle
 10
40.7065811211
 20
97.0638246546
 30
0.0
 40
0.8000000000000114
100
AcDbArc
 50
17.5838617053
 51
90.0
  0
LINE
  5
7B
330
1F
100
AcDbEntity
  8
0
  6
Continuous
 62
     7
370
    15
100
AcDbLine
 10
39.9573014682
 20
95.7138232716
 30
0.0
 11
41.3450065633
 21
96.878248436
 31
0.0
  0
SPLINE
  5
7C
330
1F
100
AcDbEntity
  8
0
  6
Continuous
 62
     7
370
    15
100
AcDbSpline
210
0.0
220
0.0
230
1.0
 70
     8
 71
     3
 72
     9
 73
     5
 74
     0
 42
0.000000001
 43
0.00000001
 40
0.0
 40
0.0
 40
0.0
 40
0.0
 40
0.3850396614068451
 40
1.0
 40
1.0
 40
1.0
 40
1.0
 10
39.13257726052267
 20
66.32836738752209
 30
0.0
 10
39.23802754096741
 20
66.38139197349669
 30
0.0
 10
39.51189616026613
 20
66.51910398420446
 30
0.0
 10
39.79747337917366
 20
66.64857953523325
 30
0.0
 10
39.97309204240752
 20
66.72820186393344
 30
0.0
  0
SPLINE
  5
7D
330
1F
100
AcDbEntity
  8
0
  6
Continuous
 62
     7
370
    15
100
AcDbSpline
210
0.0
220
0.0
230
1.0
 70
     8
 71
     3
 72
    11
 73
     7
 74
     0
 42
0.000000001
 43
0.00000001
 40
0.0
 40
0.0
 40
0.0
 40
0.0
 40
0.1325746947789793
 40
0.4151048150419459
 40
0.7040148924216353
 40
1.0
 40
1.0
 40
1.0
 40
1.0
 10
39.02301583256063
 20
64.13529597373687
 30
0.0
 10
39.05738692367748
 20
64.15329162572712
 30
0.0
 10
39.16500629587087
 20
64.20963783722267
 30
0.0
 10
39.35761031565033
 20
64.30276862198825
 30
0.0
 10
39.59776895474896
 20
64.41560091113136
 30
0.0
 10
39.76035791490455
 20
64.4892873623425
 30
0.0
 10
39.84263575219971
 20
64.52657625230037
 30
0.0
  0
SPLINE
  5
7E
330
1F
100
AcDbEntity
  8
0
  6
Continuous
 62
     7
370
    15
100
AcDbSpline
210
0.0
220
0.0
230
1.0
 70
     8
 71
     3
 72
    11
 73
     7
 74
     0
 42
0.000000001
 43
0.00000001
 40
0.0
 40
0.0
 40
0.0
 40
0.0
 40
0.2047753143355765
 40
0.4391659068469412
 40
0.7040797370940399
 40
1.0
 40
1.0
 40
1.0
 40
1.0
 10
38.42912752114658
 20
61.77204875892036
 30
0.0
 10
38.48525889073336
 20
61.81166742082665
 30
0.0
 10
38.60563953283914
 20
61.89663452558043
 30
0.0
 10
38.82721565089834
 20
62.0224718159533
 30
0.0
 10
39.08957009388991
 20
62.15857230771895
 30
0.0
 10
39.28060667321503
 20
62.24936386363587
 30
0.0
 10
39.38140581411731
 20
62.2972694054433
 30
0.0
  0
SPLINE
  5
7F
330
1F
100
AcDbEntity
  8
0
  6
Continuous
 62
     7
370
    15
100
AcDbSpline
210
0.0
220
0.0
230
1.0
 70
     8
 71
     3
 72
    12
 73
     8
 74
     0
 42
0.000000001
 43
0.00000001
 40
0.0
 40
0.0
 40
0.0
 40
0.0
 40
0.2779791842639914
 40
0.519854771883165
 40
0.7271742442915413
 40
0.9012500782481495
 40
1.0
 40
1.0
 40
1.0
 40
1.0
 10
37.26849793273446
 20
61.15569167921328
 30
0.0
 10
37.33235070167076
 20
61.12283401855946
 30
0.0
 10
37.45176311996881
 20
61.06138621005167
 30
0.0
 10
37.612223987683
 20
60.97194454584425
 30
0.0
 10
37.74234573769828
 20
60.89252505317516
 30
0.0
 10
37.83713911439359
 20
60.8293809098678
 30
0.0
 10
37.88613831922098
 20
60.79119886688488
 30
0.0
 10
37.90387369625692
 20
60.77737878693276
 30
0.0
  0
SPLINE
  5
80
330
1F
100
AcDbEntity
  8
0
  6
Continuous
 62
     7
370
    15
100
AcDbSpline
210
0.0
220
0.0
230
1.0
 70
     8
 71
     3
 72
    10
 73
     6
 74
     0
 42
0.000000001
 43
0.00000001
 40
0.0
 40
0.0
 40
0.0
 40
0.0
 40
0.3486711067785017
 40
0.6872537964278111
 40
0.9999999999999999
 40
0.9999999999999999
 40
0.9999999999999999
 40
0.9999999999999999
 10
36.60803603523833
 20
63.42510104330265
 30
0.0
 10
36.69287132105566
 20
63.38642198365081
 30
0.0
 10
36.86008727648049
 20
63.31018300063445
 30
0.0
 10
37.10393155862484
 20
63.19520403014778
 30
0.0
 10
37.25636020461587
 20
63.117953235709
 30
0.0
 10
37.32955130798233
 20
63.08086000533783
 30
0.0
  0
SPLINE
  5
81
330
1F
100
AcDbEntity
  8
0
  6
Continuous
 62
     7
370
    15
100
AcDbSpline
210
0.0
220
0.0
230
1.0
 70
     8
 71
     3
 72
     9
 73
     5
 74
     0
 42
0.000000001
 43
0.00000001
 40
0.0
 40
0.0
 40
0.0
 40
0.0
 40
0.7687393128571799
 40
0.9999999999999999
 40
0.9999999999999999
 40
0.9999999999999999
 40
0.9999999999999999
 10
36.34209419650448
 20
65.63269736396157
 30
0.0
 10
36.50258563998946
 20
65.56103619171216
 30
0.0
 10
36.71135789971488
 20
65.46781711074303
 30
0.0
 10
36.91052219279451
 20
65.36988089112562
 30
0.0
 10
36.95658106406641
 20
65.34723209368073
 30
0.0
  0
SPLINE
  5
82
330
1F
100
AcDbEntity
  8
0
  6
Continuous
 62
     7
370
    15
100
AcDbSpline
210
0.0
220
0.0
230
1.0
 70
     8
 71
     3
 72
     9
 73
     5
 74
     0
 42
0.000000001
 43
0.00000001
 40
0.0
 40
0.0
 40
0.0
 40
0.0
 40
0.8299624576852529
 40
1.0
 40
1.0
 40
1.0
 40
1.0
 10
36.33535409861666
 20
67.83011898549282
 30
0.0
 10
36.50937933276104
 20
67.75212134984528
 30
0.0
 10
36.71905777367478
 20
67.65814404409451
 30
0.0
 10
36.92206261907635
 20
67.55709495620395
 30
0.0
 10
36.95658106406641
 20
67.5399128176459
 30
0.0
  0
LINE
  5
83
330
1F
100
AcDbEntity
  8
0
  6
Continuous
 62
     7
370
    15
100
AcDbLine
 10
39.5787011464
 20
84.6220582552
 30
0.0
 11
39.4112961465
 21
84.7015447743
 31
0.0
  0
SPLINE
  5
84
330
1F
100
AcDbEntity
  8
0
  6
Continuous
 62
     7
370
    15
100
AcDbSpline
210
0.0
220
0.0
230
1.0
 70
     8
 71
     3
 72
    11
 73
     7
 74
     0
 42
0.000000001
 43
0.00000001
 40
0.0
 40
0.0
 40
0.0
 40
0.0
 40
0.2768926531456276
 40
0.5995380900036168
 40
0.965266122246008
 40
1.0
 40
1.0
 40
1.0
 40
1.0
 10
39.97470346329224
 20
82.41230731980883
 30
0.0
 10
39.91719610526442
 20
82.43832390568457
 30
0.0
 10
39.79267907239455
 20
82.49465596804573
 30
0.0
 10
39.5934228140962
 20
82.58693117479191
 30
0.0
 10
39.44386073514462
 20
82.6565437005369
 30
0.0
 10
39.36354714039615
 20
82.6962268622525
 30
0.0
 10
39.3565811780603
 20
82.69966876285159
 30
0.0
  0
SPLINE
  5
85
330
1F
100
AcDbEntity
  8
0
  6
Continuous
 62
     7
370
    15
100
AcDbSpline
210
0.0
220
0.0
230
1.0
 70
     8
 71
     3
 72
     9
 73
     5
 74
     0
 42
0.000000001
 43
0.00000001
 40
0.0
 40
0.0
 40
0.0
 40
0.0
 40
0.6376135459320612
 40
1.0
 40
1.0
 40
1.0
 40
1.0
 10
39.97540288654578
 20
80.2105229176768
 30
0.0
 10
39.84207324251484
 20
80.27053424292576
 30
0.0
 10
39.63296594722352
 20
80.36465289148938
 30
0.0
 10
39.43009783418704
 20
80.46436104307783
 30
0.0
 10
39.3565811780603
 20
80.50049392657363
 30
0.0
  0
SPLINE
  5
86
330
1F
100
AcDbEntity
  8
0
  6
Continuous
 62
     7
370
    15
100
AcDbSpline
210
0.0
220
0.0
230
1.0
 70
     8
 71
     3
 72
     9
 73
     5
 74
     0
 42
0.000000001
 43
0.00000001
 40
0.0
 40
0.0
 40
0.0
 40
0.0
 40
0.7577693055753165
 40
1.0
 40
1.0
 40
1.0
 40
1.0
 10
39.97227143080396
 20
78.0131399460324
 30
0.0
 10
39.81448871888312
 20
78.0843351136585
 30
0.0
 10
39.60626873588837
 20
78.17828873133911
 30
0.0
 10
39.40526938935096
 20
78.27704370247997
 30
0.0
 10
39.3565811780603
 20
78.30096518771731
 30
0.0
  0
SPLINE
  5
87
330
1F
100
AcDbEntity
  8
0
  6
Continuous
 62
     7
370
    15
100
AcDbSpline
210
0.0
220
0.0
230
1.0
 70
     8
 71
     3
 72
     9
 73
     5
 74
     0
 42
0.000000001
 43
0.00000001
 40
0.0
 40
0.0
 40
0.0
 40
0.0
 40
0.7714336380742028
 40
1.0
 40
1.0
 40
1.0
 40
1.0
 10
39.97848521502179
 20
75.80938486533248
 30
0.0
 10
39.81647956771791
 20
75.88222447634001
 30
0.0
 10
39.60647362643137
 20
75.97664557416688
 30
0.0
 10
39.40307195753059
 20
76.07684636266637
 30
0.0
 10
39.3565811780603
 20
76.09974889235579
 30
0.0
  0
SPLINE
  5
88
330
1F
100
AcDbEntity
  8
0
  6
Continuous
 62
     7
370
    15
100
AcDbSpline
210
0.0
220
0.0
230
1.0
 70
     8
 71
     3
 72
     9
 73
     5
 74
     0
 42
0.000000001
 43
0.00000001
 40
0.0
 40
0.0
 40
0.0
 40
0.0
 40
0.7663359571547599
 40
0.9999999999999999
 40
0.9999999999999999
 40
0.9999999999999999
 40
0.9999999999999999
 10
39.97202975259584
 20
73.61290993319832
 30
0.0
 10
39.81287712607745
 20
73.68478917381735
 30
0.0
 10
39.60519715878307
 20
73.77858516492014
 30
0.0
 10
39.40367067175879
 20
73.87772825564464
 30
0.0
 10
39.3565811780603
 20
73.9008944310435
 30
0.0
  0
SPLINE
  5
89
330
1F
100
AcDbEntity
  8
0
  6
Continuous
 62
     7
370
    15
100
AcDbSpline
210
0.0
220
0.0
230
1.0
 70
     8
 71
     3
 72
    11
 73
     7
 74
     0
 42
0.000000001
 43
0.00000001
 40
0.0
 40
0.0
 40
0.0
 40
0.0
 40
0.2944315717373571
 40
0.5605717923997076
 40
0.79640228883396
 40
1.0
 40
1.0
 40
1.0
 40
1.0
 10
37.17964574278754
 20
75.10925473796212
 30
0.0
 10
37.09893361473424
 20
75.06904822356296
 30
0.0
 10
36.94526482838683
 20
74.99249855971446
 30
0.0
 10
36.7202902770418
 20
74.88658526034884
 30
0.0
 10
36.51972005828569
 20
74.79414739858359
 30
0.0
 10
36.3942429513224
 20
74.7375090091825
 30
0.0
 10
36.33610637442631
 20
74.71126707421624
 30
0.0
  0
SPLINE
  5
8A
330
1F
100
AcDbEntity
  8
0
  6
Continuous
 62
     7
370
    15
100
AcDbSpline
210
0.0
220
0.0
230
1.0
 70
     8
 71
     3
 72
     9
 73
     5
 74
     0
 42
0.000000001
 43
0.00000001
 40
0.0
 40
0.0
 40
0.0
 40
0.0
 40
0.4918777804586875
 40
1.0
 40
1.0
 40
1.0
 40
1.0
 10
37.18484025265512
 20
77.31212971882903
 30
0.0
 10
37.04897193886223
 20
77.2447462607753
 30
0.0
 10
36.77274821176849
 20
77.10775398193951
 30
0.0
 10
36.48515512979201
 20
76.97727982641031
 30
0.0
 10
36.33902269465339
 20
76.91098300891005
 30
0.0
  0
SPLINE
  5
8B
330
1F
100
AcDbEntity
  8
0
  6
Continuous
 62
     7
370
    15
100
AcDbSpline
210
0.0
220
0.0
230
1.0
 70
     8
 71
     3
 72
     9
 73
     5
 74
     0
 42
0.000000001
 43
0.00000001
 40
0.0
 40
0.0
 40
0.0
 40
0.0
 40
0.4918469452631323
 40
1.0
 40
1.0
 40
1.0
 40
1.0
 10
37.18075279429046
 20
79.50963376240813
 30
0.0
 10
37.04467164959529
 20
79.44248039088095
 30
0.0
 10
36.76799788755257
 20
79.3059473247027
 30
0.0
 10
36.47987760496317
 20
79.17593643074746
 30
0.0
 10
36.33346840323371
 20
79.10987099783503
 30
0.0
  0
SPLINE
  5
8C
330
1F
100
AcDbEntity
  8
0
  6
Continuous
 62
     7
370
    15
100
AcDbSpline
210
0.0
220
0.0
230
1.0
 70
     8
 71
     3
 72
     9
 73
     5
 74
     0
 42
0.000000001
 43
0.00000001
 40
0.0
 40
0.0
 40
0.0
 40
0.0
 40
0.4355791240718112
 40
1.0
 40
1.0
 40
1.0
 40
1.0
 10
37.18247067698699
 20
81.71112945454203
 30
0.0
 10
37.06240059639568
 20
81.65151457543448
 30
0.0
 10
36.78674440913654
 20
81.51465108539787
 30
0.0
 10
36.50090170872158
 20
81.38475287150587
 30
0.0
 10
36.33956612137568
 20
81.31143560783946
 30
0.0
  0
SPLINE
  5
8D
330
1F
100
AcDbEntity
  8
0
  6
Continuous
 62
     7
370
    15
100
AcDbSpline
210
0.0
220
0.0
230
1.0
 70
     8
 71
     3
 72
     9
 73
     5
 74
     0
 42
0.000000001
 43
0.00000001
 40
0.0
 40
0.0
 40
0.0
 40
0.0
 40
0.3900862588033884
 40
1.0
 40
1.0
 40
1.0
 40
1.0
 10
37.13247634985906
 20
83.85940006153666
 30
0.0
 10
37.03090209915609
 20
83.81059434421276
 30
0.0
 10
36.77051289443361
 20
83.68547915180987
 30
0.0
 10
36.50391724272251
 20
83.5673303042821
 30
0.0
 10
36.34131689140064
 20
83.49526969866835
 30
0.0
  0
SPLINE
  5
8E
330
1F
100
AcDbEntity
  8
0
  6
Continuous
 62
     7
370
    15
100
AcDbSpline
210
0.0
220
0.0
230
1.0
 70
     8
 71
     3
 72
    10
 73
     6
 74
     0
 42
0.000000001
 43
0.00000001
 40
0.0
 40
0.0
 40
0.0
 40
0.0
 40
0.1206369661808276
 40
0.5336246351146247
 40
1.0
 40
1.0
 40
1.0
 40
1.0
 10
39.07801951098678
 20
84.01962293462836
 30
0.0
 10
39.09869824230162
 20
84.03087097008888
 30
0.0
 10
39.19016838451301
 20
84.08062544426376
 30
0.0
 10
39.36875530247669
 20
84.17063852033688
 30
0.0
 10
39.52785249079005
 20
84.24759792953478
 30
0.0
 10
39.61223062177611
 20
84.28841380553328
 30
0.0
  0
SPLINE
  5
8F
330
1F
100
AcDbEntity
  8
0
  6
Continuous
 62
     7
370
    15
100
AcDbSpline
210
0.0
220
0.0
230
1.0
 70
     8
 71
     3
 72
     9
 73
     5
 74
     0
 42
0.000000001
 43
0.00000001
 40
0.0
 40
0.0
 40
0.0
 40
0.0
 40
0.4357455020784573
 40
0.9999999999999999
 40
0.9999999999999999
 40
0.9999999999999999
 40
0.9999999999999999
 10
39.13324920976025
 20
81.7298453130015
 30
0.0
 10
39.25381394649768
 20
81.7894162625216
 30
0.0
 10
39.53050007673274
 20
81.92612668003814
 30
0.0
 10
39.81720847991239
 20
82.05610034934708
 30
0.0
 10
39.97898498599839
 20
82.12943857686602
 30
0.0
  0
SPLINE
  5
90
330
1F
100
AcDbEntity
  8
0
  6
Continuous
 62
     7
370
    15
100
AcDbSpline
210
0.0
220
0.0
230
1.0
 70
     8
 71
     3
 72
     9
 73
     5
 74
     0
 42
0.000000001
 43
0.00000001
 40
0.0
 40
0.0
 40
0.0
 40
0.0
 40
0.4529628837244252
 40
0.9999999999999999
 40
0.9999999999999999
 40
0.9999999999999999
 40
0.9999999999999999
 10
39.12877507790414
 20
79.52835148351275
 30
0.0
 10
39.25444678118756
 20
79.59069796722588
 30
0.0
 10
39.53189049191744
 20
79.72833945166826
 30
0.0
 10
39.81873272832348
 20
79.858318474923
 30
0.0
 10
39.97564607815308
 20
79.92942182498061
 30
0.0
  0
SPLINE
  5
91
330
1F
100
AcDbEntity
  8
0
  6
Continuous
 62
     7
370
    15
100
AcDbSpline
210
0.0
220
0.0
230
1.0
 70
     8
 71
     3
 72
    11
 73
     7
 74
     0
 42
0.000000001
 43
0.00000001
 40
0.0
 40
0.0
 40
0.0
 40
0.0
 40
0.2943544164395123
 40
0.560386595990323
 40
0.796205450643357
 40
1.0
 40
1.0
 40
1.0
 40
1.0
 10
39.13375922528517
 20
77.33026815729224
 30
0.0
 10
39.21423475220073
 20
77.37034944984956
 30
0.0
 10
39.36744259984994
 20
77.4466554872135
 30
0.0
 10
39.59189765821978
 20
77.55239187209973
 30
0.0
 10
39.79215009706733
 20
77.64477029688315
 30
0.0
 10
39.91746730247541
 20
77.70142934701212
 30
0.0
 10
39.97556144421411
 20
77.7276951648482
 30
0.0
  0
SPLINE
  5
92
330
1F
100
AcDbEntity
  8
0
  6
Continuous
 62
     7
370
    15
100
AcDbSpline
210
0.0
220
0.0
230
1.0
 70
     8
 71
     3
 72
     9
 73
     5
 74
     0
 42
0.000000001
 43
0.00000001
 40
0.0
 40
0.0
 40
0.0
 40
0.0
 40
0.4370262106286697
 40
1.0
 40
1.0
 40
1.0
 40
1.0
 10
39.12859393566337
 20
75.12808701174342
 30
0.0
 10
39.24970155249075
 20
75.18824526849188
 30
0.0
 10
39.52681906599904
 20
75.32589892698054
 30
0.0
 10
39.81331174928725
 20
75.4558709992014
 30
0.0
 10
39.97459962082517
 20
75.52904186921202
 30
0.0
  0
SPLINE
  5
93
330
1F
100
AcDbEntity
  8
0
  6
Continuous
 62
     7
370
    15
100
AcDbSpline
210
0.0
220
0.0
230
1.0
 70
     8
 71
     3
 72
     9
 73
     5
 74
     0
 42
0.000000001
 43
0.00000001
 40
0.0
 40
0.0
 40
0.0
 40
0.0
 40
0.4409671141629087
 40
1.0
 40
1.0
 40
1.0
 40
1.0
 10
39.1276854886995
 20
72.92740157024943
 30
0.0
 10
39.2508926337062
 20
72.98828436584037
 30
0.0
 10
39.5302947502123
 20
73.12635088743691
 30
0.0
 10
39.817733631896
 20
73.25632218454481
 30
0.0
 10
39.97842141942543
 20
73.32898041384303
 30
0.0
  0
SPLINE
  5
94
330
1F
100
AcDbEntity
  8
0
  6
Continuous
 62
     7
370
    15
100
AcDbSpline
210
0.0
220
0.0
230
1.0
 70
     8
 71
     3
 72
    11
 73
     7
 74
     0
 42
0.000000001
 43
0.00000001
 40
0.0
 40
0.0
 40
0.0
 40
0.0
 40
0.2794953262748366
 40
0.6040410603131511
 40
0.9710962203713976
 40
0.9999999999999999
 40
0.9999999999999999
 40
0.9999999999999999
 40
0.9999999999999999
 10
36.34138266605747
 20
74.42693336086356
 30
0.0
 10
36.39916418088885
 20
74.4007361059989
 30
0.0
 10
36.52404071442672
 20
74.34411899609354
 30
0.0
 10
36.7235178095082
 20
74.25143505332109
 30
0.0
 10
36.87184189047964
 20
74.18214600965335
 30
0.0
 10
36.95081618452318
 20
74.14301161564377
 30
0.0
 10
36.95658106406641
 20
74.14015492575251
 30
0.0
  0
SPLINE
  5
95
330
1F
100
AcDbEntity
  8
0
  6
Continuous
 62
     7
370
    15
100
AcDbSpline
210
0.0
220
0.0
230
1.0
 70
     8
 71
     3
 72
     9
 73
     5
 74
     0
 42
0.000000001
 43
0.00000001
 40
0.0
 40
0.0
 40
0.0
 40
0.0
 40
0.7709555775524134
 40
1.0
 40
1.0
 40
1.0
 40
1.0
 10
36.33337305908513
 20
76.63039600627505
 30
0.0
 10
36.4957169785837
 20
76.55748105969282
 30
0.0
 10
36.70629191211484
 20
76.46290369530857
 30
0.0
 10
36.90993723801212
 20
76.3627348201788
 30
0.0
 10
36.95658106406641
 20
76.33979169802748
 30
0.0
  0
SPLINE
  5
96
330
1F
100
AcDbEntity
  8
0
  6
Continuous
 62
     7
370
    15
100
AcDbSpline
210
0.0
220
0.0
230
1.0
 70
     8
 71
     3
 72
     9
 73
     5
 74
     0
 42
0.000000001
 43
0.00000001
 40
0.0
 40
0.0
 40
0.0
 40
0.0
 40
0.7686754596687342
 40
1.0
 40
1.0
 40
1.0
 40
1.0
 10
36.34211584975434
 20
78.82693519966685
 30
0.0
 10
36.50153991852119
 20
78.75491258729298
 30
0.0
 10
36.70894093121327
 20
78.66121555108876
 30
0.0
 10
36.91005779743485
 20
78.5620570629064
 30
0.0
 10
36.95658106406641
 20
78.53911927120768
 30
0.0
  0
SPLINE
  5
97
330
1F
100
AcDbEntity
  8
0
  6
Continuous
 62
     7
370
    15
100
AcDbSpline
210
0.0
220
0.0
230
1.0
 70
     8
 71
     3
 72
    11
 73
     7
 74
     0
 42
0.000000001
 43
0.00000001
 40
0.0
 40
0.0
 40
0.0
 40
0.0
 40
0.2751454453843378
 40
0.5973356687530057
 40
0.9634285652255218
 40
1.0
 40
1.0
 40
1.0
 40
1.0
 10
36.33425921251488
 20
81.02968072669589
 30
0.0
 10
36.39174698757543
 20
81.00375294614658
 30
0.0
 10
36.51655188308423
 20
80.9474642145193
 30
0.0
 10
36.71672224276774
 20
80.8549303791075
 30
0.0
 10
36.86768109785812
 20
80.78476068785046
 30
0.0
 10
36.94917911830711
 20
80.74446989683194
 30
0.0
 10
36.95658106406641
 20
80.74081054108225
 30
0.0
  0
SPLINE
  5
98
330
1F
100
AcDbEntity
  8
0
  6
Continuous
 62
     7
370
    15
100
AcDbSpline
210
0.0
220
0.0
230
1.0
 70
     8
 71
     3
 72
     9
 73
     5
 74
     0
 42
0.000000001
 43
0.00000001
 40
0.0
 40
0.0
 40
0.0
 40
0.0
 40
0.7110909675326217
 40
1.0
 40
1.0
 40
1.0
 40
1.0
 10
36.34106648204339
 20
83.22706742363059
 30
0.0
 10
36.48899934823174
 20
83.16028283195419
 30
0.0
 10
36.69703583433935
 20
83.06636433948881
 30
0.0
 10
36.89840398615547
 20
82.96730019053659
 30
0.0
 10
36.95658106406641
 20
82.9386796631106
 30
0.0
  0
SPLINE
  5
99
330
1F
100
AcDbEntity
  8
0
  6
Continuous
 62
     7
370
    15
100
AcDbSpline
210
0.0
220
0.0
230
1.0
 70
     8
 71
     3
 72
    13
 73
     9
 74
     0
 42
0.000000001
 43
0.00000001
 40
0.0
 40
0.0
 40
0.0
 40
0.0
 40
0.2129890274688045
 40
0.3789338519821995
 40
0.4955893484641609
 40
0.597118639772618
 40
0.763592045552353
 40
1.0
 40
1.0
 40
1.0
 40
1.0
 10
39.1338142897324
 20
68.53067705558621
 30
0.0
 10
39.19272557034731
 20
68.56014528876764
 30
0.0
 10
39.29753603290449
 20
68.61257292432828
 30
0.0
 10
39.43704288121947
 20
68.67947564793708
 30
0.0
 10
39.54546221663787
 20
68.73067889474986
 30
0.0
 10
39.65316921678531
 20
68.78092851528392
 30
0.0
 10
39.79645422311982
 20
68.84695753716987
 30
0.0
 10
39.91151620225558
 20
68.89891146815135
 30
0.0
 10
39.97903376401824
 20
68.92939767019831
 30
0.0
  0
SPLINE
  5
9A
330
1F
100
AcDbEntity
  8
0
  6
Continuous
 62
     7
370
    15
100
AcDbSpline
210
0.0
220
0.0
230
1.0
 70
     8
 71
     3
 72
    11
 73
     7
 74
     0
 42
0.000000001
 43
0.00000001
 40
0.0
 40
0.0
 40
0.0
 40
0.0
 40
0.2803272157876761
 40
0.6037722221833421
 40
0.9680873387119958
 40
1.0
 40
1.0
 40
1.0
 40
1.0
 10
36.33634432734412
 20
70.02887332962834
 30
0.0
 10
36.3947585918478
 20
70.00239961523447
 30
0.0
 10
36.52057195673101
 20
69.94538020196018
 30
0.0
 10
36.72115345647384
 20
69.85229148323562
 30
0.0
 10
36.8705611152327
 20
69.78255891383598
 30
0.0
 10
36.95016932333741
 20
69.74317860656735
 30
0.0
 10
36.95658106406641
 20
69.740006869305
 30
0.0
  0
SPLINE
  5
9B
330
1F
100
AcDbEntity
  8
0
  6
Continuous
 62
     7
370
    15
100
AcDbSpline
210
0.0
220
0.0
230
1.0
 70
     8
 71
     3
 72
     9
 73
     5
 74
     0
 42
0.000000001
 43
0.00000001
 40
0.0
 40
0.0
 40
0.0
 40
0.0
 40
0.6957741873030089
 40
1.0
 40
1.0
 40
1.0
 40
1.0
 10
39.97814167340708
 20
67.01016862096273
 30
0.0
 10
39.83144125938203
 20
67.07600800988268
 30
0.0
 10
39.62059639519742
 20
67.17063553433164
 30
0.0
 10
39.41816579263853
 20
67.27008410933774
 30
0.0
 10
39.3565811780603
 20
67.30033893289053
 30
0.0
  0
SPLINE
  5
9C
330
1F
100
AcDbEntity
  8
0
  6
Continuous
 62
     7
370
    15
100
AcDbSpline
210
0.0
220
0.0
230
1.0
 70
     8
 71
     3
 72
     9
 73
     5
 74
     0
 42
0.000000001
 43
0.00000001
 40
0.0
 40
0.0
 40
0.0
 40
0.0
 40
0.9783749662146918
 40
1.0
 40
1.0
 40
1.0
 40
1.0
 10
39.84355450191957
 20
64.82604721711957
 30
0.0
 10
39.68217742954559
 20
64.8996353620116
 30
0.0
 10
39.51723343777692
 20
64.97485002656576
 30
0.0
 10
39.35998175109754
 20
65.05490315312473
 30
0.0
 10
39.3565811780603
 20
65.05663430469119
 30
0.0
  0
SPLINE
  5
9D
330
1F
100
AcDbEntity
  8
0
  6
Continuous
 62
     7
370
    15
100
AcDbSpline
210
0.0
220
0.0
230
1.0
 70
     8
 71
     3
 72
    10
 73
     6
 74
     0
 42
0.000000001
 43
0.00000001
 40
0.0
 40
0.0
 40
0.0
 40
0.0
 40
0.3623621022982993
 40
0.7821400643322378
 40
1.0
 40
1.0
 40
1.0
 40
1.0
 10
39.40838413362813
 20
62.66939051600182
 30
0.0
 10
39.3509374800364
 20
62.69805672617472
 30
0.0
 10
39.22694181644209
 20
62.75993127466253
 30
0.0
 10
39.06964645989292
 20
62.8411135318729
 30
0.0
 10
38.97438078299835
 20
62.89491149261943
 30
0.0
 10
38.94183162882415
 20
62.91329248959207
 30
0.0
  0
SPLINE
  5
9E
330
1F
100
AcDbEntity
  8
0
  6
Continuous
 62
     7
370
    15
100
AcDbSpline
210
0.0
220
0.0
230
1.0
 70
     8
 71
     3
 72
    10
 73
     6
 74
     0
 42
0.000000001
 43
0.00000001
 40
0.0
 40
0.0
 40
0.0
 40
0.0
 40
0.4033396480122423
 40
0.8540418087389378
 40
1.0
 40
1.0
 40
1.0
 40
1.0
 10
38.80604706754399
 20
60.54495839087301
 30
0.0
 10
38.74911871627604
 20
60.57995945279207
 30
0.0
 10
38.62857715205091
 20
60.65407160709297
 30
0.0
 10
38.49476218291988
 20
60.74476827996157
 30
0.0
 10
38.43372135703689
 20
60.80158513000898
 30
0.0
 10
38.41878922938791
 20
60.81548396648847
 30
0.0
  0
SPLINE
  5
9F
330
1F
100
AcDbEntity
  8
0
  6
Continuous
 62
     7
370
    15
100
AcDbSpline
210
0.0
220
0.0
230
1.0
 70
     8
 71
     3
 72
    11
 73
     7
 74
     0
 42
0.000000001
 43
0.00000001
 40
0.0
 40
0.0
 40
0.0
 40
0.0
 40
0.0794420923026958
 40
0.3429125974966311
 40
0.6484578332056795
 40
1.0
 40
1.0
 40
1.0
 40
1.0
 10
37.87690570860592
 20
62.01885366497569
 30
0.0
 10
37.86279942468906
 20
62.0066497106807
 30
0.0
 10
37.80190950703023
 20
61.95397121813703
 30
0.0
 10
37.66275673568509
 20
61.86025920031743
 30
0.0
 10
37.45218998909604
 20
61.73129493293408
 30
0.0
 10
37.28967989653763
 20
61.64487837269135
 30
0.0
 10
37.2027368964949
 20
61.59864545950674
 30
0.0
  0
SPLINE
  5
A0
330
1F
100
AcDbEntity
  8
0
  6
Continuous
 62
     7
370
    15
100
AcDbSpline
210
0.0
220
0.0
230
1.0
 70
     8
 71
     3
 72
     9
 73
     5
 74
     0
 42
0.000000001
 43
0.00000001
 40
0.0
 40
0.0
 40
0.0
 40
0.0
 40
0.345945495933868
 40
1.0
 40
1.0
 40
1.0
 40
1.0
 10
37.32060735163701
 20
64.09279762918138
 30
0.0
 10
37.2395200750899
 20
64.04943592288646
 30
0.0
 10
37.00512686141841
 20
63.92409332758007
 30
0.0
 10
36.75620312406151
 20
63.80820442075864
 30
0.0
 10
36.59339343247426
 20
63.7324067592808
 30
0.0
  0
SPLINE
  5
A1
330
1F
100
AcDbEntity
  8
0
  6
Continuous
 62
     7
370
    15
100
AcDbSpline
210
0.0
220
0.0
230
1.0
 70
     8
 71
     3
 72
     9
 73
     5
 74
     0
 42
0.000000001
 43
0.00000001
 40
0.0
 40
0.0
 40
0.0
 40
0.0
 40
0.4926324461686723
 40
1.0
 40
1.0
 40
1.0
 40
1.0
 10
37.17951570687306
 20
66.30956584738576
 30
0.0
 10
37.04394123742025
 20
66.24271347719468
 30
0.0
 10
36.76873713645771
 20
66.10700911847654
 30
0.0
 10
36.48176781308061
 20
65.97717451478849
 30
0.0
 10
36.33616888945413
 20
65.91130064951264
 30
0.0
  0
LINE
  5
A2
330
1F
100
AcDbEntity
  8
0
  6
Continuous
 62
     7
370
    15
100
AcDbLine
 10
36.2167972005
 20
70.2256515451
 30
0.0
 11
36.1946546571
 21
70.2133599498
 31
0.0
  0
SPLINE
  5
A3
330
1F
100
AcDbEntity
  8
0
  6
Continuous
 62
     7
370
    15
100
AcDbSpline
210
0.0
220
0.0
230
1.0
 70
     8
 71
     3
 72
     9
 73
     5
 74
     0
 42
0.000000001
 43
0.00000001
 40
0.0
 40
0.0
 40
0.0
 40
0.0
 40
0.6970479812291289
 40
0.9999999999999999
 40
0.9999999999999999
 40
0.9999999999999999
 40
0.9999999999999999
 10
39.97304570910943
 20
69.21209318714224
 30
0.0
 10
39.82722529478697
 20
69.27792730276933
 30
0.0
 10
39.6180281975293
 20
69.37237433855444
 30
0.0
 10
39.41737075527319
 20
69.47115422274747
 30
0.0
 10
39.3565811780603
 20
69.5010797880777
 30
0.0
  0
SPLINE
  5
A4
330
1F
100
AcDbEntity
  8
0
  6
Continuous
 62
     7
370
    15
100
AcDbSpline
210
0.0
220
0.0
230
1.0
 70
     8
 71
     3
 72
    12
 73
     8
 74
     0
 42
0.000000001
 43
0.00000001
 40
0.0
 40
0.0
 40
0.0
 40
0.0
 40
0.3240422173705195
 40
0.5525291230338979
 40
0.6922143834481541
 40
0.851504913004341
 40
1.0
 40
1.0
 40
1.0
 40
1.0
 10
39.97915902690453
 20
71.40938768314206
 30
0.0
 10
39.91135500168314
 20
71.44001542116854
 30
0.0
 10
39.79574136683721
 20
71.49223922512103
 30
0.0
 10
39.651496169921
 20
71.55875519792649
 30
0.0
 10
39.54301201859033
 20
71.60947635305403
 30
0.0
 10
39.4503753013264
 20
71.6531740390215
 30
0.0
 10
39.38710617371713
 20
71.68380598896542
 30
0.0
 10
39.3565811780603
 20
71.69858476297938
 30
0.0
  0
SPLINE
  5
A5
330
1F
100
AcDbEntity
  8
0
  6
Continuous
 62
     7
370
    15
100
AcDbSpline
210
0.0
220
0.0
230
1.0
 70
     8
 71
     3
 72
     9
 73
     5
 74
     0
 42
0.000000001
 43
0.00000001
 40
0.0
 40
0.0
 40
0.0
 40
0.0
 40
0.6294498249188787
 40
1.0
 40
1.0
 40
1.0
 40
1.0
 10
37.17329563622785
 20
72.90594296680771
 30
0.0
 10
37.0396729852273
 20
72.8396130781789
 30
0.0
 10
36.82738815217046
 20
72.73423551510251
 30
0.0
 10
36.60565847849666
 20
72.63323129791891
 30
0.0
 10
36.52349650909615
 20
72.59580416755759
 30
0.0
  0
SPLINE
  5
A6
330
1F
100
AcDbEntity
  8
0
  6
Continuous
 62
     7
370
    15
100
AcDbSpline
210
0.0
220
0.0
230
1.0
 70
     8
 71
     3
 72
    14
 73
    10
 74
     0
 42
0.000000001
 43
0.00000001
 40
0.0
 40
0.0
 40
0.0
 40
0.0
 40
0.2163165128334125
 40
0.3837393116500608
 40
0.4996500834124178
 40
0.5695256896811177
 40
0.6742951272328138
 40
0.8174058906947745
 40
0.9999999999999999
 40
0.9999999999999999
 40
0.9999999999999999
 40
0.9999999999999999
 10
39.12132606891406
 20
70.72419224457823
 30
0.0
 10
39.18176075040132
 20
70.75463537507449
 30
0.0
 10
39.28897014819508
 20
70.80864061853963
 30
0.0
 10
39.4306960625063
 20
70.87700389810001
 30
0.0
 10
39.53130374934335
 20
70.92478219012624
 30
0.0
 10
39.61278284614113
 20
70.9630595652922
 30
0.0
 10
39.70330368330188
 20
71.00520610713465
 30
0.0
 10
39.82650104845933
 20
71.06192499056198
 30
0.0
 10
39.92012812529742
 20
71.10434335722147
 30
0.0
 10
39.97261660223317
 20
71.12812360899531
 30
0.0
  0
SPLINE
  5
A7
330
1F
100
AcDbEntity
  8
0
  6
Continuous
 62
     7
370
    15
100
AcDbSpline
210
0.0
220
0.0
230
1.0
 70
     8
 71
     3
 72
    11
 73
     7
 74
     0
 42
0.000000001
 43
0.00000001
 40
0.0
 40
0.0
 40
0.0
 40
0.0
 40
0.2793157576873211
 40
0.6035170259563917
 40
0.9696462197045335
 40
1.0
 40
1.0
 40
1.0
 40
1.0
 10
36.33562604480845
 20
72.22970778273427
 30
0.0
 10
36.39388192030404
 20
72.20341526374358
 30
0.0
 10
36.51975527959706
 20
72.1466050680083
 30
0.0
 10
36.72078192664726
 20
72.05354999986795
 30
0.0
 10
36.87057299692168
 20
71.98381212986227
 30
0.0
 10
36.9504647445433
 20
71.94423277548736
 30
0.0
 10
36.95658106406641
 20
71.94120267556988
 30
0.0
  0
LINE
  5
A8
330
1F
100
AcDbEntity
  8
0
  6
Continuous
 62
     7
370
    15
100
AcDbLine
 10
36.355860774
 20
95.7138232716
 30
0.0
 11
36.83158116
 21
94.4738231428
 31
0.0
  0
LINE
  5
A9
330
1F
100
AcDbEntity
  8
0
  6
Continuous
 62
     7
370
    15
100
AcDbLine
 10
39.4815810821
 20
94.4738231428
 30
0.0
 11
39.9573014682
 21
95.7138232716
 31
0.0
  0
LINE
  5
AA
330
1F
100
AcDbEntity
  8
0
  6
Continuous
 62
     7
370
    15
100
AcDbLine
 10
39.4815810821
 20
85.2638251908
 30
0.0
 11
39.4815810821
 21
94.4738231428
 31
0.0
  0
LINE
  5
AB
330
1F
100
AcDbEntity
  8
0
  6
Continuous
 62
     7
370
    15
100
AcDbLine
 10
36.83158116
 20
94.4738231428
 30
0.0
 11
36.83158116
 21
85.2638251908
 31
0.0
  0
LINE
  5
AC
330
1F
100
AcDbEntity
  8
0
  6
Continuous
 62
     7
370
    15
100
AcDbLine
 10
36.83158116
 20
85.2638251908
 30
0.0
 11
36.9565810641
 21
84.2638250269
 31
0.0
  0
LINE
  5
AD
330
1F
100
AcDbEntity
  8
0
  6
Continuous
 62
     7
370
    15
100
AcDbLine
 10
39.4016984017
 20
84.624762816
 30
0.0
 11
39.4815810821
 21
85.2638251908
 31
0.0
  0
LINE
  5
AE
330
1F
100
AcDbEntity
  8
0
  6
Continuous
 62
     7
370
    15
100
AcDbLine
 10
37.8436606068
 20
61.0188802766
 30
0.0
 11
38.1565811211
 21
59.763824649
 31
0.0
  0
LINE
  5
AF
330
1F
100
AcDbEntity
  8
0
  6
Continuous
 62
     7
370
    15
100
AcDbLine
 10
37.2951189154
 20
63.2189607077
 30
0.0
 11
37.6372188428
 21
61.8468729608
 31
0.0
  0
LINE
  5
B0
330
1F
100
AcDbEntity
  8
0
  6
Continuous
 62
     7
370
    15
100
AcDbLine
 10
36.9565810641
 20
64.5767619662
 30
0.0
 11
37.105478589
 21
63.9795667321
 31
0.0
  0
LINE
  5
B1
330
1F
100
AcDbEntity
  8
0
  6
Continuous
 62
     7
370
    15
100
AcDbLine
 10
38.9012425538
 20
62.7504987005
 30
0.0
 11
39.2784697567
 21
64.2634743653
 31
0.0
  0
LINE
  5
B2
330
1F
100
AcDbEntity
  8
0
  6
Continuous
 62
     7
370
    15
100
AcDbLine
 10
38.3541347062
 20
60.556168808
 30
0.0
 11
38.7010114598
 21
61.9474154027
 31
0.0
  0
LINE
  5
B3
330
1F
100
AcDbEntity
  8
0
  6
Continuous
 62
     7
370
    15
100
AcDbLine
 10
38.1565811211
 20
59.763824649
 30
0.0
 11
38.1957578127
 21
59.9209537849
 31
0.0
  0
LINE
  5
B4
330
1F
100
AcDbEntity
  8
0
  6
Continuous
 62
     7
370
    15
100
AcDbLine
 10
39.3565811781
 20
67.1923995778
 30
0.0
 11
39.3565811781
 21
68.6405433171
 31
0.0
  0
LINE
  5
B5
330
1F
100
AcDbEntity
  8
0
  6
Continuous
 62
     7
370
    15
100
AcDbLine
 10
39.3565811781
 20
64.9405333042
 30
0.0
 11
39.3565811781
 21
66.4395305157
 31
0.0
  0
LINE
  5
B6
330
1F
100
AcDbEntity
  8
0
  6
Continuous
 62
     7
370
    15
100
AcDbLine
 10
36.9565810641
 20
65.4499355532
 30
0.0
 11
36.9565810641
 21
64.5767619662
 31
0.0
  0
LINE
  5
B7
330
1F
100
AcDbEntity
  8
0
  6
Continuous
 62
     7
370
    15
100
AcDbLine
 10
36.9565810641
 20
67.6469548434
 30
0.0
 11
36.9565810641
 21
66.2011775948
 31
0.0
  0
LINE
  5
B8
330
1F
100
AcDbEntity
  8
0
  6
Continuous
 62
     7
370
    15
100
AcDbLine
 10
36.9565810641
 20
69.8476845227
 30
0.0
 11
36.9565810641
 21
68.3935090728
 31
0.0
  0
LINE
  5
B9
330
1F
100
AcDbEntity
  8
0
  6
Continuous
 62
     7
370
    15
100
AcDbLine
 10
39.3565811781
 20
82.5919259168
 30
0.0
 11
39.3565811781
 21
84.1637674548
 31
0.0
  0
LINE
  5
BA
330
1F
100
AcDbEntity
  8
0
  6
Continuous
 62
     7
370
    15
100
AcDbLine
 10
39.3565811781
 20
80.3928796031
 30
0.0
 11
39.3565811781
 21
81.8388305433
 31
0.0
  0
LINE
  5
BB
330
1F
100
AcDbEntity
  8
0
  6
Continuous
 62
     7
370
    15
100
AcDbLine
 10
39.3565811781
 20
78.1919110395
 30
0.0
 11
39.3565811781
 21
79.6398475595
 31
0.0
  0
LINE
  5
BC
330
1F
100
AcDbEntity
  8
0
  6
Continuous
 62
     7
370
    15
100
AcDbLine
 10
39.3565811781
 20
75.992732478
 30
0.0
 11
39.3565811781
 21
77.4401660837
 31
0.0
  0
LINE
  5
BD
330
1F
100
AcDbEntity
  8
0
  6
Continuous
 62
     7
370
    15
100
AcDbLine
 10
39.3565811781
 20
73.7920721822
 30
0.0
 11
39.3565811781
 21
75.2398643471
 31
0.0
  0
LINE
  5
BE
330
1F
100
AcDbEntity
  8
0
  6
Continuous
 62
     7
370
    15
100
AcDbLine
 10
39.3565811781
 20
71.5926514767
 30
0.0
 11
39.3565811781
 21
73.0390634217
 31
0.0
  0
LINE
  5
BF
330
1F
100
AcDbEntity
  8
0
  6
Continuous
 62
     7
370
    15
100
AcDbLine
 10
36.9565810641
 20
74.2475764655
 30
0.0
 11
36.9565810641
 21
72.8002900087
 31
0.0
  0
LINE
  5
C0
330
1F
100
AcDbEntity
  8
0
  6
Continuous
 62
     7
370
    15
100
AcDbLine
 10
36.9565810641
 20
76.4472365208
 30
0.0
 11
36.9565810641
 21
74.999231083
 31
0.0
  0
LINE
  5
C1
330
1F
100
AcDbEntity
  8
0
  6
Continuous
 62
     7
370
    15
100
AcDbLine
 10
36.9565810641
 20
78.6473929711
 30
0.0
 11
36.9565810641
 21
77.2005609997
 31
0.0
  0
LINE
  5
C2
330
1F
100
AcDbEntity
  8
0
  6
Continuous
 62
     7
370
    15
100
AcDbLine
 10
36.9565810641
 20
80.8474264868
 30
0.0
 11
36.9565810641
 21
79.4006168671
 31
0.0
  0
LINE
  5
C3
330
1F
100
AcDbEntity
  8
0
  6
Continuous
 62
     7
370
    15
100
AcDbLine
 10
36.9565810641
 20
83.0499764361
 30
0.0
 11
36.9565810641
 21
81.6003989257
 31
0.0
  0
LINE
  5
C4
330
1F
100
AcDbEntity
  8
0
  6
Continuous
 62
     7
370
    15
100
AcDbLine
 10
36.9565810641
 20
84.2638250269
 30
0.0
 11
36.9565810641
 21
83.7757542558
 31
0.0
  0
LINE
  5
C5
330
1F
100
AcDbEntity
  8
0
  6
Continuous
 62
     7
370
    15
100
AcDbLine
 10
39.3565811781
 20
69.3921886213
 30
0.0
 11
39.3565811781
 21
70.8409027957
 31
0.0
  0
LINE
  5
C6
330
1F
100
AcDbEntity
  8
0
  6
Continuous
 62
     7
370
    15
100
AcDbLine
 10
36.9565810641
 20
72.0470018514
 30
0.0
 11
36.9565810641
 21
70.593789389
 31
0.0
  0
LINE
  5
C7
330
1F
100
AcDbEntity
  8
0
  6
Continuous
 62
     7
370
    15
100
AcDbLine
 10
34.9681556789
 20
96.878248436
 30
0.0
 11
36.355860774
 21
95.7138232716
 31
0.0
  0
LINE
  5
C8
330
1F
100
AcDbEntity
  8
0
  6
Continuous
 62
     7
370
    15
100
AcDbLine
 10
39.3035281548
 20
96.8604117461
 30
0.0
 11
38.1386068773
 21
95.9895171054
 31
0.0
  0
LINE
  5
C9
330
1F
100
AcDbEntity
  8
0
  6
Continuous
 62
     7
370
    15
100
AcDbLine
 10
38.1386068773
 20
95.9895171054
 30
0.0
 11
37.5205912376
 21
96.869792027
 31
0.0
  0
LINE
  5
CA
330
1F
100
AcDbEntity
  8
0
  6
Continuous
 62
     7
370
    15
100
AcDbLine
 10
36.8596394644
 20
96.878248436
 30
0.0
 11
36.3495344161
 21
96.878248436
 31
0.0
  0
LINE
  5
CB
330
1F
100
AcDbEntity
  8
0
  6
Continuous
 62
     7
370
    15
100
AcDbLine
 10
36.3495344161
 20
96.878248436
 30
0.0
 11
35.0986062647
 21
96.878248436
 31
0.0
  0
LINE
  5
CC
330
1F
100
AcDbEntity
  8
0
  6
Continuous
 62
     7
370
    15
100
AcDbLine
 10
35.0986062647
 20
96.878248436
 30
0.0
 11
35.0474361428
 21
96.878248436
 31
0.0
  0
SPLINE
  5
CD
330
1F
100
AcDbEntity
  8
0
  6
Continuous
 62
     7
370
    15
100
AcDbSpline
210
0.0
220
0.0
230
1.0
 70
     8
 71
     3
 72
     9
 73
     5
 74
     0
 42
0.000000001
 43
0.00000001
 40
0.0
 40
0.0
 40
0.0
 40
0.0
 40
0.4999999999999948
 40
1.0
 40
1.0
 40
1.0
 40
1.0
 10
35.0474360776774
 20
96.87824743617401
 30
0.0
 10
35.03521386958542
 20
96.87752074636747
 30
0.0
 10
35.01076945340147
 20
96.87606736675436
 30
0.0
 10
34.9939976453593
 20
96.87752074636747
 30
0.0
 10
34.98561174133822
 20
96.87824743617401
 30
0.0
  0
LINE
  5
CE
330
1F
100
AcDbEntity
  8
0
  6
Continuous
 62
     7
370
    15
100
AcDbLine
 10
41.3350723782
 20
96.878248436
 30
0.0
 11
40.4673195542
 21
96.878248436
 31
0.0
  0
LINE
  5
CF
330
1F
100
AcDbEntity
  8
0
  6
Continuous
 62
     7
370
    15
100
AcDbLine
 10
40.4673195542
 20
96.878248436
 30
0.0
 11
40.3230809705
 21
96.878248436
 31
0.0
  0
SPLINE
  5
D0
330
1F
100
AcDbEntity
  8
0
  6
Continuous
 62
     7
370
    15
100
AcDbSpline
210
0.0
220
0.0
230
1.0
 70
     8
 71
     3
 72
     9
 73
     5
 74
     0
 42
0.000000001
 43
0.00000001
 40
0.0
 40
0.0
 40
0.0
 40
0.0
 40
0.4999999999999907
 40
0.9999999999999999
 40
0.9999999999999999
 40
0.9999999999999999
 40
0.9999999999999999
 10
40.32308096294287
 20
96.87824743617401
 30
0.0
 10
40.27556972854831
 20
96.87752074636747
 30
0.0
 10
40.18054725975916
 20
96.87606736675436
 30
0.0
 10
40.08058835461748
 20
96.87752074636747
 30
0.0
 10
40.03060890204664
 20
96.87824743617401
 30
0.0
  0
LINE
  5
D1
330
1F
100
AcDbEntity
  8
0
  6
Continuous
 62
     7
370
    15
100
AcDbLine
 10
40.0306088948
 20
96.878248436
 30
0.0
 11
39.5280255569
 21
96.878248436
 31
0.0
  0
LINE
  5
D2
330
1F
100
AcDbEntity
  8
0
  6
Continuous
 62
     7
370
    15
100
AcDbLine
 10
39.5280255569
 20
96.878248436
 30
0.0
 11
37.4093446979
 21
96.878248436
 31
0.0
  0
LINE
  5
D3
330
1F
100
AcDbEntity
  8
0
  6
Continuous
 62
     7
370
    15
100
AcDbLine
 10
37.4093446979
 20
96.878248436
 30
0.0
 11
37.213935934
 21
96.878248436
 31
0.0
  0
SPLINE
  5
D4
330
1F
100
AcDbEntity
  8
0
  6
Continuous
 62
     7
370
    15
100
AcDbSpline
210
0.0
220
0.0
230
1.0
 70
     8
 71
     3
 72
     9
 73
     5
 74
     0
 42
0.000000001
 43
0.00000001
 40
0.0
 40
0.0
 40
0.0
 40
0.0
 40
0.4999999999999772
 40
1.0
 40
1.0
 40
1.0
 40
1.0
 10
37.21393591955694
 20
96.87824743617401
 30
0.0
 10
37.15420247707039
 20
96.87752074636747
 30
0.0
 10
37.03473559209731
 20
96.87606736675436
 30
0.0
 10
36.91800487891347
 20
96.87752074636747
 30
0.0
 10
36.85963952232155
 20
96.87824743617401
 30
0.0
  0
LINE
  5
D5
330
1F
100
AcDbEntity
  8
0
  6
Continuous
 62
     7
370
    15
100
AcDbLine
 10
38.1565811211
 20
97.8638261385
 30
0.0
 11
40.7065812131
 21
97.8638261385
 31
0.0
  0
LINE
  5
D6
330
1F
100
AcDbEntity
  8
0
  6
Continuous
 62
     7
370
    15
100
AcDbLine
 10
35.606581029
 20
97.8638261385
 30
0.0
 11
38.1565811211
 21
97.8638261385
 31
0.0
  0
SPLINE
  5
D7
330
1F
100
AcDbEntity
  8
0
  6
Continuous
 62
     7
370
    15
100
AcDbSpline
210
0.0
220
0.0
230
1.0
 70
     8
 71
     3
 72
    10
 73
     6
 74
     0
 42
0.000000001
 43
0.00000001
 40
0.0
 40
0.0
 40
0.0
 40
0.0
 40
0.5
 40
0.5
 40
1.0
 40
1.0
 40
1.0
 40
1.0
 10
37.40934468458817
 20
96.87824743617401
 30
0.0
 10
37.76607723539496
 20
96.84591994851706
 30
0.0
 10
38.12219318837881
 20
96.82940620661473
 30
0.0
 10
38.83326901213976
 20
96.82916432654041
 30
0.0
 10
39.188448789486
 20
96.84590870311382
 30
0.0
 10
39.5280255959377
 20
96.87824743617401
 30
0.0
  0
SPLINE
  5
D8
330
1F
100
AcDbEntity
  8
0
  6
Continuous
 62
     7
370
    15
100
AcDbSpline
210
0.0
220
0.0
230
1.0
 70
     8
 71
     3
 72
     8
 73
     4
 74
     0
 42
0.000000001
 43
0.00000001
 40
0.0
 40
0.0
 40
0.0
 40
0.0
 40
1.0
 40
1.0
 40
1.0
 40
1.0
 10
37.00272739645059
 20
96.87821465647535
 30
0.0
 10
37.2174633291087
 20
96.65355708231962
 30
0.0
 10
37.43200765587391
 20
96.42822324001654
 30
0.0
 10
37.64664215369612
 20
96.20320765417593
 30
0.0
  0
SPLINE
  5
D9
330
1F
100
AcDbEntity
  8
0
  6
Continuous
 62
     7
370
    15
100
AcDbSpline
210
0.0
220
0.0
230
1.0
 70
     8
 71
     3
 72
     8
 73
     4
 74
     0
 42
0.000000001
 43
0.00000001
 40
0.0
 40
0.0
 40
0.0
 40
0.0
 40
1.0
 40
1.0
 40
1.0
 40
1.0
 10
38.13860687691801
 20
95.80428930492312
 30
0.0
 10
37.88960011604507
 20
96.14752808400613
 30
0.0
 10
37.64902161954483
 20
96.51176470295268
 30
0.0
 10
37.40934468458817
 20
96.87824743617401
 30
0.0
  0
LINE
  5
DA
330
1F
100
AcDbEntity
  8
0
  6
Continuous
 62
     7
370
    15
100
AcDbLine
 10
38.1386068773
 20
95.9895171054
 30
0.0
 11
38.1386068773
 21
95.8042882212
 31
0.0
  0
LINE
  5
DB
330
1F
100
AcDbEntity
  8
0
  6
Continuous
 62
     7
370
    15
100
AcDbLine
 10
39.6146497322
 20
95.7138232716
 30
0.0
 11
37.9704802861
 21
95.7138232716
 31
0.0
  0
SPLINE
  5
DC
330
1F
100
AcDbEntity
  8
0
  6
Continuous
 62
     7
370
    15
100
AcDbSpline
210
0.0
220
0.0
230
1.0
 70
     8
 71
     3
 72
     8
 73
     4
 74
     0
 42
0.000000001
 43
0.00000001
 40
0.0
 40
0.0
 40
0.0
 40
0.0
 40
1.0
 40
1.0
 40
1.0
 40
1.0
 10
37.97048028769041
 20
95.71382465462285
 30
0.0
 10
37.71390307076873
 20
96.0912526703093
 30
0.0
 10
37.46370070648955
 20
96.48421684323344
 30
0.0
 10
37.21393591955694
 20
96.87824743617401
 30
0.0
  0
SPLINE
  5
DD
330
1F
100
AcDbEntity
  8
0
  6
Continuous
 62
     7
370
    15
100
AcDbSpline
210
0.0
220
0.0
230
1.0
 70
     8
 71
     3
 72
    10
 73
     6
 74
     0
 42
0.000000001
 43
0.00000001
 40
0.0
 40
0.0
 40
0.0
 40
0.0
 40
0.5
 40
0.5
 40
1.0
 40
1.0
 40
1.0
 40
1.0
 10
39.5280255959377
 20
96.87824743617401
 30
0.0
 10
39.30559064486651
 20
96.68033759281714
 30
0.0
 10
39.08053726399723
 20
96.48651823101387
 30
0.0
 10
38.62085151571888
 20
96.12086437215122
 30
0.0
 10
38.38661353025375
 20
95.94759938251308
 30
0.0
 10
38.13860687691805
 20
95.80428930492305
 30
0.0
  0
SPLINE
  5
DE
330
1F
100
AcDbEntity
  8
0
  6
Continuous
 62
     7
370
    15
100
AcDbSpline
210
0.0
220
0.0
230
1.0
 70
     8
 71
     3
 72
    10
 73
     6
 74
     0
 42
0.000000001
 43
0.00000001
 40
0.0
 40
0.0
 40
0.0
 40
0.0
 40
0.5000000000000002
 40
0.5000000000000002
 40
1.0
 40
1.0
 40
1.0
 40
1.0
 10
40.03060890204664
 20
96.878247436174
 30
0.0
 10
39.96281173715023
 20
96.67631176551355
 30
0.0
 10
39.89465037108966
 20
96.47624910132168
 30
0.0
 10
39.75661362550248
 20
96.08493856713707
 30
0.0
 10
39.6868604825754
 20
95.89306206120307
 30
0.0
 10
39.61464970013893
 20
95.71382465462278
 30
0.0
  0
SPLINE
  5
DF
330
1F
100
AcDbEntity
  8
0
  6
Continuous
 62
     7
370
    15
100
AcDbSpline
210
0.0
220
0.0
230
1.0
 70
     8
 71
     3
 72
    10
 73
     6
 74
     0
 42
0.000000001
 43
0.00000001
 40
0.0
 40
0.0
 40
0.0
 40
0.0
 40
0.5
 40
0.5
 40
1.0
 40
1.0
 40
1.0
 40
1.0
 10
36.85963952232154
 20
96.87824743617401
 30
0.0
 10
37.04067084481609
 20
96.67633914217404
 30
0.0
 10
37.22275096081194
 20
96.47621904249398
 30
0.0
 10
37.59143115676529
 20
96.08486244639904
 30
0.0
 10
37.77800045527704
 20
95.8927248272882
 30
0.0
 10
37.97048028769041
 20
95.71382465462285
 30
0.0
  0
LINE
  5
E0
330
1F
100
AcDbEntity
  8
0
  6
Continuous
 62
     7
370
    15
100
AcDbLine
 10
37.9704802861
 20
95.7138232716
 30
0.0
 11
36.512411675
 21
95.7138232716
 31
0.0
  0
SPLINE
  5
E1
330
1F
100
AcDbEntity
  8
0
  6
Continuous
 62
     7
370
    15
100
AcDbSpline
210
0.0
220
0.0
230
1.0
 70
     8
 71
     3
 72
     8
 73
     4
 74
     0
 42
0.000000001
 43
0.00000001
 40
0.0
 40
0.0
 40
0.0
 40
0.0
 40
1.0
 40
1.0
 40
1.0
 40
1.0
 10
36.51241170861483
 20
95.71382465462285
 30
0.0
 10
36.01557349834405
 20
96.0912534531312
 30
0.0
 10
35.53108108847631
 20
96.48421729253765
 30
0.0
 10
35.04743607767738
 20
96.878247436174
 30
0.0
  0
SPLINE
  5
E2
330
1F
100
AcDbEntity
  8
0
  6
Continuous
 62
     7
370
    15
100
AcDbSpline
210
0.0
220
0.0
230
1.0
 70
     8
 71
     3
 72
     8
 73
     4
 74
     0
 42
0.000000001
 43
0.00000001
 40
0.0
 40
0.0
 40
0.0
 40
0.0
 40
1.0
 40
1.0
 40
1.0
 40
1.0
 10
36.49483018962389
 20
95.80428930492312
 30
0.0
 10
36.01808890559567
 20
96.14752828115675
 30
0.0
 10
35.55748452409842
 20
96.51176482423351
 30
0.0
 10
35.09860627566189
 20
96.87824743617345
 30
0.0
  0
SPLINE
  5
E3
330
1F
100
AcDbEntity
  8
0
  6
Continuous
 62
     7
370
    15
100
AcDbSpline
210
0.0
220
0.0
230
1.0
 70
     8
 71
     3
 72
    10
 73
     6
 74
     0
 42
0.000000001
 43
0.00000001
 40
0.0
 40
0.0
 40
0.0
 40
0.0
 40
0.4999999999999998
 40
0.4999999999999998
 40
1.0
 40
1.0
 40
1.0
 40
1.0
 10
36.3495343639782
 20
96.87824743617401
 30
0.0
 10
36.37272552757207
 20
96.68092934100913
 30
0.0
 10
36.3962069548331
 20
96.48750453385178
 30
0.0
 10
36.44427747819442
 20
96.12174610318455
 30
0.0
 10
36.46882237974517
 20
95.94800268019968
 30
0.0
 10
36.49483018962389
 20
95.80428930492312
 30
0.0
  0
LINE
  5
E4
330
1F
100
AcDbEntity
  8
0
  6
Continuous
 62
     7
370
    15
100
AcDbLine
 10
36.4619542477
 20
96.0139736362
 30
0.0
 11
35.3493190003
 21
96.8417294152
 31
0.0
  0
SPLINE
  5
E5
330
1F
100
AcDbEntity
  8
0
  6
Continuous
 62
     7
370
    15
100
AcDbSpline
210
0.0
220
0.0
230
1.0
 70
     8
 71
     3
 72
    10
 73
     6
 74
     0
 42
0.000000001
 43
0.00000001
 40
0.0
 40
0.0
 40
0.0
 40
0.0
 40
0.4999999999999998
 40
0.4999999999999998
 40
1.0
 40
1.0
 40
1.0
 40
1.0
 10
35.09860627566123
 20
96.87824743617401
 30
0.0
 10
35.23681347146086
 20
96.84592060495281
 30
0.0
 10
35.41108043582633
 20
96.82940610818392
 30
0.0
 10
35.83039893044892
 20
96.82916442275805
 30
0.0
 10
36.07661010724532
 20
96.84591004508931
 30
0.0
 10
36.3495343639782
 20
96.87824743617401
 30
0.0
  0
SPLINE
  5
E6
330
1F
100
AcDbEntity
  8
0
  6
Continuous
 62
     7
370
    15
100
AcDbSpline
210
0.0
220
0.0
230
1.0
 70
     8
 71
     3
 72
     8
 73
     4
 74
     0
 42
0.000000001
 43
0.00000001
 40
0.0
 40
0.0
 40
0.0
 40
0.0
 40
1.0
 40
1.0
 40
1.0
 40
1.0
 10
39.76371483690021
 20
96.10869068432615
 30
0.0
 10
39.91980461449416
 20
96.3651037773905
 30
0.0
 10
40.07557098133676
 20
96.6221495653683
 30
0.0
 10
40.23183979191749
 20
96.87821241262421
 30
0.0
  0
LINE
  5
E7
330
1F
100
AcDbEntity
  8
0
  6
Continuous
 62
     7
370
    15
100
AcDbLine
 10
39.9573014682
 20
95.7138232716
 30
0.0
 11
39.6146497322
 21
95.7138232716
 31
0.0
  0
SPLINE
  5
E8
330
1F
100
AcDbEntity
  8
0
  6
Continuous
 62
     7
370
    15
100
AcDbSpline
210
0.0
220
0.0
230
1.0
 70
     8
 71
     3
 72
     8
 73
     4
 74
     0
 42
0.000000001
 43
0.00000001
 40
0.0
 40
0.0
 40
0.0
 40
0.0
 40
1.0
 40
1.0
 40
1.0
 40
1.0
 10
39.61464970013892
 20
95.71382465462285
 30
0.0
 10
39.85491023191814
 20
96.09125356403133
 30
0.0
 10
40.08920049205633
 20
96.48421735618905
 30
0.0
 10
40.32308096294288
 20
96.87824743617398
 30
0.0
  0
SPLINE
  5
E9
330
1F
100
AcDbEntity
  8
0
  6
Continuous
 62
     7
370
    15
100
AcDbSpline
210
0.0
220
0.0
230
1.0
 70
     8
 71
     3
 72
     8
 73
     4
 74
     0
 42
0.000000001
 43
0.00000001
 40
0.0
 40
0.0
 40
0.0
 40
0.0
 40
1.0
 40
1.0
 40
1.0
 40
1.0
 10
39.80035780835747
 20
95.80428930492312
 30
0.0
 10
40.02809208637096
 20
96.14752812724785
 30
0.0
 10
40.24811808056264
 20
96.5117647295533
 30
0.0
 10
40.46731952998982
 20
96.87824743617324
 30
0.0
  0
SPLINE
  5
EA
330
1F
100
AcDbEntity
  8
0
  6
Continuous
 62
     7
370
    15
100
AcDbSpline
210
0.0
220
0.0
230
1.0
 70
     8
 71
     3
 72
    10
 73
     6
 74
     0
 42
0.000000001
 43
0.00000001
 40
0.0
 40
0.0
 40
0.0
 40
0.0
 40
0.5
 40
0.5
 40
1.0
 40
1.0
 40
1.0
 40
1.0
 10
41.33507235302284
 20
96.87824743617401
 30
0.0
 10
41.08976774074349
 20
96.6806525880854
 30
0.0
 10
40.84137975237543
 20
96.48696821021761
 30
0.0
 10
40.3336288118562
 20
96.12126962695442
 30
0.0
 10
40.0748061787398
 20
95.94786455858387
 30
0.0
 10
39.80035780835748
 20
95.80428930492312
 30
0.0
  0
LINE
  5
EB
330
1F
100
AcDbEntity
  8
0
  6
Continuous
 62
     7
370
    15
100
AcDbLine
 10
41.0429372085
 20
96.830523742
 30
0.0
 11
40.011150423
 21
96.1321845479
 31
0.0
  0
SPLINE
  5
EC
330
1F
100
AcDbEntity
  8
0
  6
Continuous
 62
     7
370
    15
100
AcDbSpline
210
0.0
220
0.0
230
1.0
 70
     8
 71
     3
 72
    10
 73
     6
 74
     0
 42
0.000000001
 43
0.00000001
 40
0.0
 40
0.0
 40
0.0
 40
0.0
 40
0.5000000000000001
 40
0.5000000000000001
 40
1.0
 40
1.0
 40
1.0
 40
1.0
 10
40.46731952999033
 20
96.87824743617401
 30
0.0
 10
40.68581885714397
 20
96.8459233838107
 30
0.0
 10
40.86766983538686
 20
96.82940693956965
 30
0.0
 10
41.15946001427243
 20
96.82916360943729
 30
0.0
 10
41.26842995821647
 20
96.84590813475904
 30
0.0
 10
41.33507235302284
 20
96.87824743617401
 30
0.0
  0
SPLINE
  5
ED
330
1F
100
AcDbEntity
  8
0
  6
Continuous
 62
     7
370
    15
100
AcDbSpline
210
0.0
220
0.0
230
1.0
 70
     8
 71
     3
 72
    19
 73
    15
 74
     0
 42
0.000000001
 43
0.00000001
 40
0.0
 40
0.0
 40
0.0
 40
0.0
 40
0.037766523233124
 40
0.1341598180458349
 40
0.2247497109397979
 40
0.3180602597784144
 40
0.4070340203217703
 40
0.4987372856797563
 40
0.5851358724412208
 40
0.6741883859992894
 40
0.7581415574913201
 40
0.8446156701403711
 40
0.921283704509225
 40
1.0
 40
1.0
 40
1.0
 40
1.0
 10
39.02204137810928
 20
64.13717677967631
 30
0.0
 10
39.00521281133019
 20
64.12831990449689
 30
0.0
 10
38.94543189257526
 20
64.09685720523836
 30
0.0
 10
38.81862632457969
 20
64.04273196090874
 30
0.0
 10
38.6475242521009
 20
63.97401563417246
 30
0.0
 10
38.46620086214646
 20
63.90647485542404
 30
0.0
 10
38.27739874918177
 20
63.83839211919151
 30
0.0
 10
38.09246105770548
 20
63.77105941000721
 30
0.0
 10
37.91346774958382
 20
63.70234217832667
 30
0.0
 10
37.75131390868541
 20
63.63402064110034
 30
0.0
 10
37.606046145223
 20
63.56469671542098
 30
0.0
 10
37.4887082941882
 20
63.49834965028807
 30
0.0
 10
37.39568737440214
 20
63.43235624981904
 30
0.0
 10
37.35725726171148
 20
63.38878440907904
 30
0.0
 10
37.33778891436246
 20
63.36671130882585
 30
0.0
  0
SPLINE
  5
EE
330
1F
100
AcDbEntity
  8
0
  6
Continuous
 62
     7
370
    15
100
AcDbSpline
210
0.0
220
0.0
230
1.0
 70
     8
 71
     3
 72
     9
 73
     5
 74
     0
 42
0.000000001
 43
0.00000001
 40
0.0
 40
0.0
 40
0.0
 40
0.0
 40
0.1290475134284841
 40
1.0
 40
1.0
 40
1.0
 40
1.0
 10
37.2848452632637
 20
63.21639933774257
 30
0.0
 10
37.2809839392695
 20
63.22300492546784
 30
0.0
 10
37.25106221593192
 20
63.2741921785175
 30
0.0
 10
37.2974601679921
 20
63.32362690609167
 30
0.0
 10
37.33787057971072
 20
63.36668220499539
 30
0.0
  0
SPLINE
  5
EF
330
1F
100
AcDbEntity
  8
0
  6
Continuous
 62
     7
370
    15
100
AcDbSpline
210
0.0
220
0.0
230
1.0
 70
     8
 71
     3
 72
    13
 73
     9
 74
     0
 42
0.000000001
 43
0.00000001
 40
0.0
 40
0.0
 40
0.0
 40
0.0
 40
0.1013333741083819
 40
0.3070532114287383
 40
0.5065976998035483
 40
0.7016581100646253
 40
0.8914251209568809
 40
1.0
 40
1.0
 40
1.0
 40
1.0
 10
38.43704614954491
 20
61.78029468899601
 30
0.0
 10
38.40771164331717
 20
61.75793605123083
 30
0.0
 10
38.31882430070022
 20
61.69018649103534
 30
0.0
 10
38.14875783878424
 20
61.57098360260884
 30
0.0
 10
37.97511047817575
 20
61.42320308440012
 30
0.0
 10
37.85960261484212
 20
61.27273542224117
 30
0.0
 10
37.81709244666937
 20
61.13923668933093
 30
0.0
 10
37.84207529187767
 20
61.05236639315746
 30
0.0
 10
37.85116724137639
 20
61.02075188571595
 30
0.0
  0
LINE
  5
F0
330
1F
100
AcDbEntity
  8
0
  6
Continuous
 62
     7
370
    15
100
AcDbLine
 10
38.199386642
 20
59.9355082322
 30
0.0
 11
39.0065811323
 21
60.2698591192
 31
0.0
  0
SPLINE
  5
F1
330
1F
100
AcDbEntity
  8
0
  6
Continuous
 62
     7
370
    15
100
AcDbSpline
210
0.0
220
0.0
230
1.0
 70
     8
 71
     3
 72
    10
 73
     6
 74
     0
 42
0.000000001
 43
0.00000001
 40
0.0
 40
0.0
 40
0.0
 40
0.0
 40
0.3467888765176128
 40
0.7014493479375108
 40
1.0
 40
1.0
 40
1.0
 40
1.0
 10
39.00658113233236
 20
60.26985911919743
 30
0.0
 10
39.00772538990424
 20
60.30269405277308
 30
0.0
 10
39.01003987800355
 20
60.36910922438264
 30
0.0
 10
38.93429163588531
 20
60.46066317684298
 30
0.0
 10
38.84251549922192
 20
60.51900608383902
 30
0.0
 10
38.80056914457542
 20
60.54567175486133
 30
0.0
  0
SPLINE
  5
F2
330
1F
100
AcDbEntity
  8
0
  6
Continuous
 62
     7
370
    15
100
AcDbSpline
210
0.0
220
0.0
230
1.0
 70
     8
 71
     3
 72
    26
 73
    22
 74
     0
 42
0.000000001
 43
0.00000001
 40
0.0
 40
0.0
 40
0.0
 40
0.0
 40
0.0486640498698815
 40
0.1017760053927147
 40
0.1557193438544806
 40
0.2106975297730189
 40
0.2587212698291557
 40
0.3075735492878606
 40
0.3571743423868275
 40
0.4073737930923358
 40
0.458280241808371
 40
0.5092188664312042
 40
0.5609379296503559
 40
0.6134406802782731
 40
0.6665594928581814
 40
0.7213694498177359
 40
0.7771306215839154
 40
0.8337183695058384
 40
0.891165395506688
 40
0.949312088478263
 40
1.0
 40
1.0
 40
1.0
 40
1.0
 10
37.27123311072079
 20
61.15519435295843
 30
0.0
 10
37.21902605076083
 20
61.18374949567463
 30
0.0
 10
37.10984019322883
 20
61.24346972789624
 30
0.0
 10
37.02360389322561
 20
61.33239391265249
 30
0.0
 10
37.00114423977351
 20
61.42388476605755
 30
0.0
 10
37.05767596517956
 20
61.51077517701993
 30
0.0
 10
37.18312887606884
 20
61.5929697248872
 30
0.0
 10
37.35539015862087
 20
61.6709639592643
 30
0.0
 10
37.57146756043276
 20
61.74886122555976
 30
0.0
 10
37.82286738187349
 20
61.82699166041917
 30
0.0
 10
38.09892177256452
 20
61.9047997805202
 30
0.0
 10
38.38646894193975
 20
61.98172174505194
 30
0.0
 10
38.66913985466621
 20
62.0584119649082
 30
0.0
 10
38.93564915247609
 20
62.13491375441777
 30
0.0
 10
39.17552888830553
 20
62.21205280378117
 30
0.0
 10
39.37542153003609
 20
62.29006308932977
 30
0.0
 10
39.51798579805635
 20
62.36811774888963
 30
0.0
 10
39.59082788132463
 20
62.44639871809699
 30
0.0
 10
39.59330817895825
 20
62.52446168805596
 30
0.0
 10
39.53632513756828
 20
62.59905107527175
 30
0.0
 10
39.44579903012407
 20
62.64727541782985
 30
0.0
 10
39.40363799737257
 20
62.66973510535443
 30
0.0
  0
SPLINE
  5
F3
330
1F
100
AcDbEntity
  8
0
  6
Continuous
 62
     7
370
    15
100
AcDbSpline
210
0.0
220
0.0
230
1.0
 70
     8
 71
     3
 72
    26
 73
    22
 74
     0
 42
0.000000001
 43
0.00000001
 40
0.0
 40
0.0
 40
0.0
 40
0.0
 40
0.0121675482561367
 40
0.0616229685335922
 40
0.1117156910228278
 40
0.1663282588682199
 40
0.2213436148856182
 40
0.2767017897936735
 40
0.3322558661288241
 40
0.3880066629681407
 40
0.4440640185495444
 40
0.5003861361691503
 40
0.5569066255849959
 40
0.6137447927389519
 40
0.6708735427915365
 40
0.7282983103470013
 40
0.7859175531346352
 40
0.8438348723082323
 40
0.9020351411574904
 40
0.9566585403079586
 40
1.0
 40
1.0
 40
1.0
 40
1.0
 10
36.61578708378089
 20
63.42418974416339
 30
0.0
 10
36.60065639310889
 20
63.4302146609091
 30
0.0
 10
36.52402648743322
 20
63.4607280599295
 30
0.0
 10
36.44976074170447
 20
63.51576985267138
 30
0.0
 10
36.40977953550392
 20
63.59051745076862
 30
0.0
 10
36.46718407018625
 20
63.6675783518159
 30
0.0
 10
36.61203380588078
 20
63.74653802456283
 30
0.0
 10
36.83507400158139
 20
63.82542891564349
 30
0.0
 10
37.12649694237008
 20
63.90444044655698
 30
0.0
 10
37.47634766783492
 20
63.98354382512318
 30
0.0
 10
37.86325969291191
 20
64.06251570934451
 30
0.0
 10
38.26799683197105
 20
64.14146094342826
 30
0.0
 10
38.67213632063674
 20
64.22058266059362
 30
0.0
 10
39.05319612718579
 20
64.29954904847321
 30
0.0
 10
39.39065287557656
 20
64.37858302289068
 30
0.0
 10
39.67050146247549
 20
64.45749084256484
 30
0.0
 10
39.87876407997191
 20
64.53660325326346
 30
0.0
 10
39.99928822526546
 20
64.61557758344317
 30
0.0
 10
40.01970736599986
 20
64.69287168538176
 30
0.0
 10
39.96764813556228
 20
64.76312160132986
 30
0.0
 10
39.87664573739064
 20
64.80703174078644
 30
0.0
 10
39.83638459866357
 20
64.82645839603626
 30
0.0
  0
SPLINE
  5
F4
330
1F
100
AcDbEntity
  8
0
  6
Continuous
 62
     7
370
    15
100
AcDbSpline
210
0.0
220
0.0
230
1.0
 70
     8
 71
     3
 72
    12
 73
     8
 74
     0
 42
0.000000001
 43
0.00000001
 40
0.0
 40
0.0
 40
0.0
 40
0.0
 40
0.0673078253253264
 40
0.3029590590563402
 40
0.5393345967830915
 40
0.769553396914912
 40
1.0
 40
1.0
 40
1.0
 40
1.0
 10
36.35230579928917
 20
65.63191598432147
 30
0.0
 10
36.33426047854589
 20
65.63896535149483
 30
0.0
 10
36.25303673723003
 20
65.67069523781136
 30
0.0
 10
36.19298823115532
 20
65.72690938524983
 30
0.0
 10
36.17732974285676
 20
65.79989602102165
 30
0.0
 10
36.24562777324723
 20
65.87237551233714
 30
0.0
 10
36.3597791135608
 20
65.92019976539338
 30
0.0
 10
36.41688300812108
 20
65.9441237166711
 30
0.0
  0
SPLINE
  5
F5
330
1F
100
AcDbEntity
  8
0
  6
Continuous
 62
     7
370
    15
100
AcDbSpline
210
0.0
220
0.0
230
1.0
 70
     8
 71
     3
 72
     8
 73
     4
 74
     0
 42
0.000000001
 43
0.00000001
 40
0.0
 40
0.0
 40
0.0
 40
0.0
 40
0.0002697245679935
 40
0.0002697245679935
 40
0.0002697245679935
 40
0.0002697245679935
 10
36.6770134795768
 20
65.87325020436722
 30
0.0
 10
36.58993776887094
 20
65.89544615284534
 30
0.0
 10
36.50324563959905
 20
65.91922797660781
 30
0.0
 10
36.41688302116824
 20
65.94412357921168
 30
0.0
  0
SPLINE
  5
F6
330
1F
100
AcDbEntity
  8
0
  6
Continuous
 62
     7
370
    15
100
AcDbSpline
210
0.0
220
0.0
230
1.0
 70
    24
 71
     3
 72
     8
 73
     4
 74
     0
 42
0.000000001
 43
0.00000001
 40
0.0
 40
0.0
 40
0.0
 40
0.0
 40
1.0
 40
1.0
 40
1.0
 40
1.0
 10
36.6770134795768
 20
65.87325020436721
 30
0.0
 10
36.69857943230436
 20
65.92683868516235
 30
0.0
 10
36.72137032875525
 20
65.98347098572344
 30
0.0
 10
36.74465854315348
 20
66.04133905423858
 30
0.0
  0
SPLINE
  5
F7
330
1F
100
AcDbEntity
  8
0
  6
Continuous
 62
     7
370
    15
100
AcDbSpline
210
0.0
220
0.0
230
1.0
 70
     8
 71
     3
 72
    23
 73
    19
 74
     0
 42
0.000000001
 43
0.00000001
 40
0.0
 40
0.0
 40
0.0
 40
0.0
 40
0.0660165695107374
 40
0.13201948325469
 40
0.195383924935183
 40
0.2587864794512771
 40
0.3221488744317999
 40
0.3855650334040251
 40
0.4490066962337403
 40
0.5123958763056362
 40
0.5757725442223638
 40
0.6391563953833813
 40
0.702540670271861
 40
0.7659806306902583
 40
0.8294013224382917
 40
0.8927649007195185
 40
0.95616766605723
 40
1.0
 40
1.0
 40
1.0
 40
1.0
 10
36.74465849579734
 20
66.04133889229976
 30
0.0
 10
36.8338373746239
 20
66.06265861902048
 30
0.0
 10
37.01217668530254
 20
66.10529366239915
 30
0.0
 10
37.32431722438851
 20
66.16838286361002
 30
0.0
 10
37.65533980503517
 20
66.23073617887695
 30
0.0
 10
37.99919261777423
 20
66.29212608977133
 30
0.0
 10
38.34756926772811
 20
66.35364370357836
 30
0.0
 10
38.68971456696058
 20
66.41507570914843
 30
0.0
 10
39.01601366523492
 20
66.47648278889294
 30
0.0
 10
39.31696296110571
 20
66.53796146534478
 30
0.0
 10
39.5825543194147
 20
66.59942274200172
 30
0.0
 10
39.80142975594536
 20
66.66086579174419
 30
0.0
 10
39.96898153598244
 20
66.72235558722437
 30
0.0
 10
40.08229198341169
 20
66.78376344650894
 30
0.0
 10
40.13926432181488
 20
66.84518990382149
 30
0.0
 10
40.13441935158971
 20
66.90670901210123
 30
0.0
 10
40.08010558503301
 20
66.9617942219973
 30
0.0
 10
40.00267521036805
 20
66.99646759769684
 30
0.0
 10
39.97102555402977
 20
67.01064033584677
 30
0.0
  0
SPLINE
  5
F8
330
1F
100
AcDbEntity
  8
0
  6
Continuous
 62
     7
370
    15
100
AcDbSpline
210
0.0
220
0.0
230
1.0
 70
     8
 71
     3
 72
    11
 73
     7
 74
     0
 42
0.000000001
 43
0.00000001
 40
0.0
 40
0.0
 40
0.0
 40
0.0
 40
0.2411309904222911
 40
0.4940898183985367
 40
0.7470085841648094
 40
1.0
 40
1.0
 40
1.0
 40
1.0
 10
36.33617319682104
 20
67.83007521333181
 30
0.0
 10
36.29651350305376
 20
67.85002030428636
 30
0.0
 10
36.21524874792254
 20
67.89088882288871
 30
0.0
 10
36.16905190070602
 20
67.95267665715637
 30
0.0
 10
36.18163706779481
 20
68.01546866546116
 30
0.0
 10
36.24337212570106
 20
68.05730837613007
 30
0.0
 10
36.27424408731473
 20
68.07823123561226
 30
0.0
  0
SPLINE
  5
F9
330
1F
100
AcDbEntity
  8
0
  6
Continuous
 62
     7
370
    15
100
AcDbSpline
210
0.0
220
0.0
230
1.0
 70
     8
 71
     3
 72
     8
 73
     4
 74
     0
 42
0.000000001
 43
0.00000001
 40
0.0
 40
0.0
 40
0.0
 40
0.0
 40
1.0
 40
1.0
 40
1.0
 40
1.0
 10
37.11327255263025
 20
67.82866667927146
 30
0.0
 10
36.82853347935354
 20
67.89284686728361
 30
0.0
 10
36.55047406910239
 20
67.98356128877222
 30
0.0
 10
36.274244036088
 20
68.0782308685998
 30
0.0
  0
SPLINE
  5
FA
330
1F
100
AcDbEntity
  8
0
  6
Continuous
 62
     7
370
    15
100
AcDbSpline
210
0.0
220
0.0
230
1.0
 70
     8
 71
     3
 72
    10
 73
     6
 74
     0
 42
0.000000001
 43
0.00000001
 40
0.0
 40
0.0
 40
0.0
 40
0.0
 40
0.510750021967207
 40
0.8460607547965002
 40
1.0
 40
1.0
 40
1.0
 40
1.0
 10
37.11327259478581
 20
67.8286665879377
 30
0.0
 10
37.0686061371258
 20
67.79790472160973
 30
0.0
 10
36.99461585762203
 20
67.74694748866794
 30
0.0
 10
36.95703189424857
 20
67.68585452328975
 30
0.0
 10
36.96026578847738
 20
67.65626499219391
 30
0.0
 10
36.96128331174565
 20
67.64695484342062
 30
0.0
  0
SPLINE
  5
FB
330
1F
100
AcDbEntity
  8
0
  6
Continuous
 62
     7
370
    15
100
AcDbSpline
210
0.0
220
0.0
230
1.0
 70
     8
 71
     3
 72
    23
 73
    19
 74
     0
 42
0.000000001
 43
0.00000001
 40
0.0
 40
0.0
 40
0.0
 40
0.0
 40
0.0103167702855207
 40
0.0810031817407361
 40
0.1497697075351778
 40
0.2205381954828323
 40
0.2891772763966996
 40
0.359801242074385
 40
0.4285440246738555
 40
0.4992802406078288
 40
0.5680102135472974
 40
0.6387388650564704
 40
0.7073831618871383
 40
0.7780102371599754
 40
0.8467887563559043
 40
0.9175707091434061
 40
0.986180387701691
 40
1.0
 40
1.0
 40
1.0
 40
1.0
 10
39.13165938391772
 20
66.33019231410705
 30
0.0
 10
39.12623804647931
 20
66.32712713183446
 30
0.0
 10
39.0836718586464
 20
66.30306053833442
 30
0.0
 10
38.97587408453253
 20
66.2588435337291
 30
0.0
 10
38.80996490358882
 20
66.1975293145888
 30
0.0
 10
38.62263366582064
 20
66.13680565622785
 30
0.0
 10
38.4202075123978
 20
66.07507076892706
 30
0.0
 10
38.21154263296152
 20
66.01330846196743
 30
0.0
 10
37.99926763359696
 20
65.95080704442297
 30
0.0
 10
37.79332625308026
 20
65.88984830080383
 30
0.0
 10
37.59671242068634
 20
65.82860540584427
 30
0.0
 10
37.41924592718996
 20
65.76770057040535
 30
0.0
 10
37.26313934141609
 20
65.70563796019604
 30
0.0
 10
37.1360607275024
 20
65.64366739918374
 30
0.0
 10
37.03830388663885
 20
65.58157564766178
 30
0.0
 10
36.97899196649625
 20
65.52140423270392
 30
0.0
 10
36.95303904285793
 20
65.47754456288399
 30
0.0
 10
36.95864396038932
 20
65.45389971071967
 30
0.0
 10
36.95958364804697
 20
65.4499355532416
 30
0.0
  0
SPLINE
  5
FC
330
1F
100
AcDbEntity
  8
0
  6
Continuous
 62
     7
370
    15
100
AcDbSpline
210
0.0
220
0.0
230
1.0
 70
     8
 71
     3
 72
    15
 73
    11
 74
     0
 42
0.000000001
 43
0.00000001
 40
0.0
 40
0.0
 40
0.0
 40
0.0
 40
0.1342709920513779
 40
0.2724326531606682
 40
0.4068283974132793
 40
0.5450561894594258
 40
0.6806672353176714
 40
0.820121798332296
 40
0.9573114402327149
 40
1.0
 40
1.0
 40
1.0
 40
1.0
 10
38.5304879553472
 20
84.26382502691828
 30
0.0
 10
38.59526561333909
 20
84.28042371049575
 30
0.0
 10
38.72669794256113
 20
84.31410204515983
 30
0.0
 10
38.90448630599612
 20
84.3635808920181
 30
0.0
 10
39.0633733964148
 20
84.41288636762692
 30
0.0
 10
39.1950947450712
 20
84.46161296023766
 30
0.0
 10
39.29908908041129
 20
84.51107277973354
 30
0.0
 10
39.36714657789209
 20
84.56065890402216
 30
0.0
 10
39.40045086422098
 20
84.599087492511
 30
0.0
 10
39.39829884341315
 20
84.62023417650623
 30
0.0
 10
39.39778812745077
 20
84.62525269167506
 30
0.0
  0
SPLINE
  5
FD
330
1F
100
AcDbEntity
  8
0
  6
Continuous
 62
     7
370
    15
100
AcDbSpline
210
0.0
220
0.0
230
1.0
 70
     8
 71
     3
 72
    14
 73
    10
 74
     0
 42
0.000000001
 43
0.00000001
 40
0.0
 40
0.0
 40
0.0
 40
0.0
 40
0.1449881436723831
 40
0.2898782588338943
 40
0.4348576932927671
 40
0.6108359767663888
 40
0.7869981676583496
 40
0.9630824889583034
 40
1.0
 40
1.0
 40
1.0
 40
1.0
 10
39.57351926763964
 20
73.19979759084069
 30
0.0
 10
39.64857916907242
 20
73.21977365225102
 30
0.0
 10
39.79864822288926
 20
73.2597122689773
 30
0.0
 10
39.96600762500074
 20
73.31971288015646
 30
0.0
 10
40.08814143637291
 20
73.38387065073168
 30
0.0
 10
40.14565404086989
 20
73.45251288441419
 30
0.0
 10
40.11696207162183
 20
73.52526707722157
 30
0.0
 10
40.05447224974857
 20
73.57891849291775
 30
0.0
 10
39.97771281386798
 20
73.60830710187419
 30
0.0
 10
39.96440885638309
 20
73.61340074019515
 30
0.0
  0
SPLINE
  5
FE
330
1F
100
AcDbEntity
  8
0
  6
Continuous
 62
     7
370
    15
100
AcDbSpline
210
0.0
220
0.0
230
1.0
 70
     8
 71
     3
 72
    27
 73
    23
 74
     0
 42
0.000000001
 43
0.00000001
 40
0.0
 40
0.0
 40
0.0
 40
0.0
 40
0.0331433062759729
 40
0.0858109258157772
 40
0.1384446336467749
 40
0.1910592523018998
 40
0.2436669477715349
 40
0.2963075494546711
 40
0.3489730178199128
 40
0.4015838619918785
 40
0.4542094729961104
 40
0.5068144350851134
 40
0.559475128793181
 40
0.6121245200875544
 40
0.6647271939536589
 40
0.7173484747227031
 40
0.769972722504923
 40
0.8226413373587481
 40
0.875266913847911
 40
0.9278874508460812
 40
0.9804905130994787
 40
1.0
 40
1.0
 40
1.0
 40
1.0
 10
36.35209194434297
 20
74.42622834967457
 30
0.0
 10
36.31759505418505
 20
74.44152425850287
 30
0.0
 10
36.22827958102226
 20
74.48112670754102
 30
0.0
 10
36.17403436053227
 20
74.54490349870613
 30
0.0
 10
36.18213463763767
 20
74.61776036290325
 30
0.0
 10
36.27891686512645
 20
74.6905929886159
 30
0.0
 10
36.46108445822247
 20
74.76345785709013
 30
0.0
 10
36.71564057199229
 20
74.8362896083319
 30
0.0
 10
37.02969851558245
 20
74.90904674844012
 30
0.0
 10
37.39135228278229
 20
74.98195142162021
 30
0.0
 10
37.78779906739071
 20
75.05473435124978
 30
0.0
 10
38.200368315769
 20
75.12764416862571
 30
0.0
 10
38.61034605781687
 20
75.20041465704982
 30
0.0
 10
39.00161971387905
 20
75.27321866001441
 30
0.0
 10
39.35784168731446
 20
75.34611029969413
 30
0.0
 10
39.65926551769959
 20
75.41891486975891
 30
0.0
 10
39.89450119254092
 20
75.49179700256288
 30
0.0
 10
40.05695896212169
 20
75.5645433209293
 30
0.0
 10
40.14193945925539
 20
75.63742368641888
 30
0.0
 10
40.13537076907919
 20
75.71022582299183
 30
0.0
 10
40.07314808561198
 20
75.76782747085996
 30
0.0
 10
39.99045583152498
 20
75.80107536160617
 30
0.0
 10
39.96808408809316
 20
75.81007031874739
 30
0.0
  0
SPLINE
  5
FF
330
1F
100
AcDbEntity
  8
0
  6
Continuous
 62
     7
370
    15
100
AcDbSpline
210
0.0
220
0.0
230
1.0
 70
     8
 71
     3
 72
    27
 73
    23
 74
     0
 42
0.000000001
 43
0.00000001
 40
0.0
 40
0.0
 40
0.0
 40
0.0
 40
0.0197746946271879
 40
0.0723898285973975
 40
0.1249833450307123
 40
0.177629452175843
 40
0.2302766782893055
 40
0.2828704532035012
 40
0.3354860259076126
 40
0.3880935775365665
 40
0.4407523067651526
 40
0.4933773200861753
 40
0.5459828948119738
 40
0.5985819132966359
 40
0.651213437908126
 40
0.7038701327904127
 40
0.7564722571346341
 40
0.8090889575241712
 40
0.8616849908361147
 40
0.9143366755046505
 40
0.9669773869156942
 40
1.0
 40
1.0
 40
1.0
 40
1.0
 10
36.3440389144556
 20
76.62969006376349
 30
0.0
 10
36.32128029632723
 20
76.63881548939383
 30
0.0
 10
36.23796712783152
 20
76.67222121371536
 30
0.0
 10
36.17781229869622
 20
76.72987456025682
 30
0.0
 10
36.17329151692588
 20
76.80277495822557
 30
0.0
 10
36.25738875578812
 20
76.8755647938308
 30
0.0
 10
36.41877398529748
 20
76.94834677586884
 30
0.0
 10
36.65415300827502
 20
77.02125146628305
 30
0.0
 10
36.95804863116267
 20
77.09404254546162
 30
0.0
 10
37.31439055363415
 20
77.16693817645397
 30
0.0
 10
37.70528695838939
 20
77.2396905267844
 30
0.0
 10
38.11520755856937
 20
77.31254418749356
 30
0.0
 10
38.52780686172542
 20
77.38537776296411
 30
0.0
 10
38.92327448055948
 20
77.45824375357452
 30
0.0
 10
39.28506367640208
 20
77.53107385337898
 30
0.0
 10
39.59988907587719
 20
77.60383268433097
 30
0.0
 10
39.85497220111159
 20
77.67673719958445
 30
0.0
 10
40.03436106905965
 20
77.74951827505
 30
0.0
 10
40.12964009702282
 20
77.82243048809516
 30
0.0
 10
40.13865673994069
 20
77.89519893735735
 30
0.0
 10
40.08568075490563
 20
77.95897937671344
 30
0.0
 10
39.99599095783498
 20
77.99852765891036
 30
0.0
 10
39.96141616770488
 20
78.01377324538313
 30
0.0
  0
SPLINE
  5
100
330
1F
100
AcDbEntity
  8
0
  6
Continuous
 62
     7
370
    15
100
AcDbSpline
210
0.0
220
0.0
230
1.0
 70
     8
 71
     3
 72
    30
 73
    26
 74
     0
 42
0.000000001
 43
0.00000001
 40
0.0
 40
0.0
 40
0.0
 40
0.0
 40
0.0112550496810363
 40
0.063890882666392
 40
0.1106777838475622
 40
0.1574255066729335
 40
0.2041991508732277
 40
0.250953259624267
 40
0.2977535745125117
 40
0.3445494637018077
 40
0.391299679353262
 40
0.4380747079321102
 40
0.4848233392578847
 40
0.5316159335965654
 40
0.5784185942176675
 40
0.6251758039202363
 40
0.6719476000866293
 40
0.7186960557854725
 40
0.7654790247472777
 40
0.8122856575562103
 40
0.8590524841393946
 40
0.9058153557686238
 40
0.9525712180056136
 40
0.9993435865148954
 40
1.0
 40
1.0
 40
1.0
 40
1.0
 10
36.3496530433507
 20
78.826437873412
 30
0.0
 10
36.33614690847999
 20
78.83163448074274
 30
0.0
 10
36.25947742209336
 20
78.86113375783526
 30
0.0
 10
36.19908577490779
 20
78.91216010863299
 30
0.0
 10
36.16780674684549
 20
78.97956467142939
 30
0.0
 10
36.2100270611508
 20
79.04436620875614
 30
0.0
 10
36.32090620810298
 20
79.10905244970651
 30
0.0
 10
36.49653462737783
 20
79.17385924423138
 30
0.0
 10
36.7268662239194
 20
79.23855355426664
 30
0.0
 10
37.00409013606767
 20
79.30325705470163
 30
0.0
 10
37.32011887563922
 20
79.36806441776369
 30
0.0
 10
37.66626433614282
 20
79.43274503111125
 30
0.0
 10
38.02953376448898
 20
79.49755454363216
 30
0.0
 10
38.39647436307087
 20
79.56226361756369
 30
0.0
 10
38.75550865021154
 20
79.62695489396164
 30
0.0
 10
39.09511847812941
 20
79.69175325250413
 30
0.0
 10
39.40243025987686
 20
79.75644787986657
 30
0.0
 10
39.66454733434774
 20
79.8212426532384
 30
0.0
 10
39.87538129810858
 20
79.88597305209697
 30
0.0
 10
40.02987634667848
 20
79.95065873553506
 30
0.0
 10
40.1222163181378
 20
80.01543196789328
 30
0.0
 10
40.14895532285771
 20
80.080166973298
 30
0.0
 10
40.09625516674135
 20
80.14491099796156
 30
0.0
 10
40.03416388893889
 20
80.18840867671267
 30
0.0
 10
39.97572988549501
 20
80.2102559421757
 30
0.0
 10
39.97492115994406
 20
80.21055830793463
 30
0.0
  0
SPLINE
  5
101
330
1F
100
AcDbEntity
  8
0
  6
Continuous
 62
     7
370
    15
100
AcDbSpline
210
0.0
220
0.0
230
1.0
 70
     8
 71
     3
 72
    27
 73
    23
 74
     0
 42
0.000000001
 43
0.00000001
 40
0.0
 40
0.0
 40
0.0
 40
0.0
 40
0.0160754826259801
 40
0.0686988243683616
 40
0.1213040521454939
 40
0.1739649882953343
 40
0.2266073390538147
 40
0.2792094089533328
 40
0.3318251478358975
 40
0.3844518567156442
 40
0.4371176850700658
 40
0.4897358883165656
 40
0.5423562699894698
 40
0.5949560082963788
 40
0.6476059635781192
 40
0.7002617546653225
 40
0.752862734142689
 40
0.8054852820530133
 40
0.8580965621930683
 40
0.9107607743779909
 40
0.9633952257857095
 40
1.0
 40
1.0
 40
1.0
 40
1.0
 10
36.34403472350401
 20
81.02900831179701
 30
0.0
 10
36.32503131354527
 20
81.03642771382539
 30
0.0
 10
36.24381994630176
 20
81.06813464348501
 30
0.0
 10
36.18288530948485
 20
81.12407368503027
 30
0.0
 10
36.17099630817626
 20
81.19698103303206
 30
0.0
 10
36.24783495687499
 20
81.26974211507502
 30
0.0
 10
36.40225491238734
 20
81.34256234012355
 30
0.0
 10
36.63230292579214
 20
81.41543977707215
 30
0.0
 10
36.93230546317983
 20
81.4882605175969
 30
0.0
 10
37.28483965305951
 20
81.5611281884777
 30
0.0
 10
37.67320631718888
 20
81.63387408251005
 30
0.0
 10
38.08215897163335
 20
81.70676647491781
 30
0.0
 10
38.49519343476042
 20
81.77956015491964
 30
0.0
 10
38.89242729477615
 20
81.85246274714866
 30
0.0
 10
39.25775004206007
 20
81.92525543887625
 30
0.0
 10
39.57742167212701
 20
81.99803118081202
 30
0.0
 10
39.83795914886066
 20
82.07094217199993
 30
0.0
 10
40.02230020723091
 20
82.14372489293496
 30
0.0
 10
40.12429373686292
 20
82.21662957278117
 30
0.0
 10
40.14114950569185
 20
82.28938102374998
 30
0.0
 10
40.09247203458447
 20
82.35484024158376
 30
0.0
 10
40.00178907094458
 20
82.39602486745248
 30
0.0
 10
39.96459209409964
 20
82.41291826741778
 30
0.0
  0
SPLINE
  5
102
330
1F
100
AcDbEntity
  8
0
  6
Continuous
 62
     7
370
    15
100
AcDbSpline
210
0.0
220
0.0
230
1.0
 70
     8
 71
     3
 72
    27
 73
    23
 74
     0
 42
0.000000001
 43
0.00000001
 40
0.0
 40
0.0
 40
0.0
 40
0.0
 40
0.0015405284939001
 40
0.0532167745612441
 40
0.1045427344179177
 40
0.1555401856004198
 40
0.2063976671728843
 40
0.2566995879116055
 40
0.3065453522109601
 40
0.3558968247743407
 40
0.4046812076595844
 40
0.452897214433899
 40
0.5122810079662683
 40
0.5709445832535259
 40
0.6287924246702014
 40
0.6857508744338993
 40
0.7417749566785258
 40
0.7970693868244473
 40
0.8515694030396341
 40
0.9051890649012597
 40
0.9578678024776844
 40
1.0
 40
1.0
 40
1.0
 40
1.0
 10
36.34212574505669
 20
83.22699291782462
 30
0.0
 10
36.34038579947184
 20
83.22764297442109
 30
0.0
 10
36.28028026276496
 20
83.25009884945594
 30
0.0
 10
36.2195303889948
 20
83.29425887170038
 30
0.0
 10
36.17176817520895
 20
83.35981267012326
 30
0.0
 10
36.20708771284428
 20
83.42554838604698
 30
0.0
 10
36.32104176373012
 20
83.49073472738158
 30
0.0
 10
36.49674074186824
 20
83.55640577031552
 30
0.0
 10
36.72509104553105
 20
83.62191030609631
 30
0.0
 10
36.99640509760017
 20
83.68739993337083
 30
0.0
 10
37.30168708228189
 20
83.75296056205423
 30
0.0
 10
37.65796263710438
 20
83.82377013031812
 30
0.0
 10
38.05598239686057
 20
83.90034958107785
 30
0.0
 10
38.47506459581822
 20
83.98216928182526
 30
0.0
 10
38.86630756912437
 20
84.06406479712872
 30
0.0
 10
39.20708948090113
 20
84.14592630618367
 30
0.0
 10
39.47688868809752
 20
84.22804888165528
 30
0.0
 10
39.66823326380926
 20
84.30990279985569
 30
0.0
 10
39.77624363595614
 20
84.39176832788776
 30
0.0
 10
39.79002728856972
 20
84.47364470222315
 30
0.0
 10
39.72245153763245
 20
84.55058001439625
 30
0.0
 10
39.61798810363776
 20
84.60056618446303
 30
0.0
 10
39.57156651703131
 20
84.62277909891688
 30
0.0
  0
SPLINE
  5
103
330
1F
100
AcDbEntity
  8
0
  6
Continuous
 62
     7
370
    15
100
AcDbSpline
210
0.0
220
0.0
230
1.0
 70
    24
 71
     3
 72
     8
 73
     4
 74
     0
 42
0.000000001
 43
0.00000001
 40
0.0
 40
0.0
 40
0.0
 40
0.0
 40
0.0003669084376117
 40
0.0003669084376117
 40
0.0003669084376117
 40
0.0003669084376117
 10
39.27380448694403
 20
73.32041404333377
 30
0.0
 10
39.37235538145117
 20
73.28075358084884
 30
0.0
 10
39.47241954171061
 20
73.24048412521475
 30
0.0
 10
39.57351930397249
 20
73.19979790568854
 30
0.0
  0
SPLINE
  5
104
330
1F
100
AcDbEntity
  8
0
  6
Continuous
 62
     7
370
    15
100
AcDbSpline
210
0.0
220
0.0
230
1.0
 70
     8
 71
     3
 72
     8
 73
     4
 74
     0
 42
0.000000001
 43
0.00000001
 40
0.0
 40
0.0
 40
0.0
 40
0.0
 40
1.0
 40
1.0
 40
1.0
 40
1.0
 10
38.55539790809849
 20
73.36145101366913
 30
0.0
 10
38.79524403237433
 20
73.37854711138661
 30
0.0
 10
39.03524008046085
 20
73.35824293047719
 30
0.0
 10
39.27380448694402
 20
73.32041404333376
 30
0.0
  0
SPLINE
  5
105
330
1F
100
AcDbEntity
  8
0
  6
Continuous
 62
     7
370
    15
100
AcDbSpline
210
0.0
220
0.0
230
1.0
 70
     8
 71
     3
 72
    15
 73
    11
 74
     0
 42
0.000000001
 43
0.00000001
 40
0.0
 40
0.0
 40
0.0
 40
0.0
 40
0.0663091408964021
 40
0.2069477979028985
 40
0.3516734598443788
 40
0.4921839648509214
 40
0.6367523524027675
 40
0.777537429949539
 40
0.9224179710265409
 40
0.9999999999999999
 40
0.9999999999999999
 40
0.9999999999999999
 40
0.9999999999999999
 10
38.55539789473129
 20
73.361450975407
 30
0.0
 10
38.5859312102169
 20
73.37091012951252
 30
0.0
 10
38.68122429224148
 20
73.40043171712021
 30
0.0
 10
38.83309179184141
 20
73.45050521634366
 30
0.0
 10
38.99670895516343
 20
73.51150782178898
 30
0.0
 10
39.13539843342308
 20
73.57368593116807
 30
0.0
 10
39.24339123836792
 20
73.63568785786529
 30
0.0
 10
39.31717902490572
 20
73.69750517879467
 30
0.0
 10
39.3547044795309
 20
73.7491876307699
 30
0.0
 10
39.3527963113996
 20
73.78098359560441
 30
0.0
 10
39.3521308531375
 20
73.7920721821674
 30
0.0
  0
SPLINE
  5
106
330
1F
100
AcDbEntity
  8
0
  6
Continuous
 62
     7
370
    15
100
AcDbSpline
210
0.0
220
0.0
230
1.0
 70
     8
 71
     3
 72
    23
 73
    19
 74
     0
 42
0.000000001
 43
0.00000001
 40
0.0
 40
0.0
 40
0.0
 40
0.0
 40
0.0077354007745021
 40
0.0761178181897505
 40
0.1464825588932391
 40
0.2148896625605404
 40
0.2852744993849757
 40
0.3537644338362532
 40
0.4242484400283534
 40
0.4926070521513529
 40
0.5629432126584419
 40
0.6313931027630757
 40
0.7018265596321931
 40
0.7702836335258756
 40
0.840732073992943
 40
0.9090909667636
 40
0.979424680338711
 40
1.0
 40
1.0
 40
1.0
 40
1.0
 10
37.17446805493397
 20
75.10583119617783
 30
0.0
 10
37.17844184297024
 20
75.10809859538868
 30
0.0
 10
37.21754467475454
 20
75.13041023584869
 30
0.0
 10
37.32202086178525
 20
75.17338117401515
 30
0.0
 10
37.4833229500017
 20
75.23475799684184
 30
0.0
 10
37.67003412871659
 20
75.29726921436257
 30
0.0
 10
37.86928526347155
 20
75.3588918626494
 30
0.0
 10
38.07982828022045
 20
75.42023721222994
 30
0.0
 10
38.2907544630129
 20
75.48094017234074
 30
0.0
 10
38.4991832357123
 20
75.54260094951839
 30
0.0
 10
38.69502141667935
 20
75.60429178861916
 30
0.0
 10
38.8760285049036
 20
75.66684559527096
 30
0.0
 10
39.03371049256798
 20
75.72791128176289
 30
0.0
 10
39.16551198480917
 20
75.78915395168578
 30
0.0
 10
39.26574843263175
 20
75.8500146600924
 30
0.0
 10
39.32977822298368
 20
75.91196178133508
 30
0.0
 10
39.35865779044625
 20
75.9596866630017
 30
0.0
 10
39.35387769096528
 20
75.98663361126435
 30
0.0
 10
39.35279581745577
 20
75.99273247795188
 30
0.0
  0
SPLINE
  5
107
330
1F
100
AcDbEntity
  8
0
  6
Continuous
 62
     7
370
    15
100
AcDbSpline
210
0.0
220
0.0
230
1.0
 70
     8
 71
     3
 72
    23
 73
    19
 74
     0
 42
0.000000001
 43
0.00000001
 40
0.0
 40
0.0
 40
0.0
 40
0.0
 40
0.0211785226125645
 40
0.089942306818588
 40
0.1607049289960954
 40
0.2293798130234329
 40
0.3000479702292418
 40
0.3687019799305276
 40
0.4393391863103871
 40
0.5081107532101907
 40
0.5788843022437714
 40
0.6475231627147127
 40
0.7181501249350347
 40
0.7868425228595973
 40
0.8575223687030982
 40
0.9262706032930523
 40
0.9970200396627709
 40
1.0
 40
1.0
 40
1.0
 40
1.0
 10
37.18289437055078
 20
77.30945868568503
 30
0.0
 10
37.19433418711608
 20
77.31575497928583
 30
0.0
 10
37.24291753309757
 20
77.34249448237692
 30
0.0
 10
37.36003923867858
 20
77.38991785489513
 30
0.0
 10
37.52809802391744
 20
77.4506532801138
 30
0.0
 10
37.71939862413213
 20
77.5119525417549
 30
0.0
 10
37.9215508270788
 20
77.57313057448926
 30
0.0
 10
38.1327560613925
 20
77.63548781172639
 30
0.0
 10
38.34281276092457
 20
77.69739245189557
 30
0.0
 10
38.54945101703923
 20
77.7589064972554
 30
0.0
 10
38.74221012393706
 20
77.81958520192683
 30
0.0
 10
38.91834110445964
 20
77.88107556767996
 30
0.0
 10
39.06941639806021
 20
77.94257494691752
 30
0.0
 10
39.19333361718815
 20
78.00514928794841
 30
0.0
 10
39.28565873198455
 20
78.06653282356618
 30
0.0
 10
39.33977970623719
 20
78.12786807894541
 30
0.0
 10
39.36218270625381
 20
78.16932406159886
 30
0.0
 10
39.35608289226548
 20
78.1910335937829
 30
0.0
 10
39.35583635283125
 20
78.19191103952014
 30
0.0
  0
SPLINE
  5
108
330
1F
100
AcDbEntity
  8
0
  6
Continuous
 62
     7
370
    15
100
AcDbSpline
210
0.0
220
0.0
230
1.0
 70
     8
 71
     3
 72
    22
 73
    18
 74
     0
 42
0.000000001
 43
0.00000001
 40
0.0
 40
0.0
 40
0.0
 40
0.0
 40
0.0417149939239986
 40
0.1101225085260228
 40
0.1805073750500555
 40
0.249033380710268
 40
0.3195483290647095
 40
0.3880317584842669
 40
0.4585056805351831
 40
0.5269257001375948
 40
0.597321688876873
 40
0.6658754679689562
 40
0.7364236737253361
 40
0.8048652924653813
 40
0.8752917651718873
 40
0.9437421084674972
 40
1.0
 40
1.0
 40
1.0
 40
1.0
 10
37.17804188889873
 20
79.50640021042906
 30
0.0
 10
37.20189222954307
 20
79.5186211277871
 30
0.0
 10
37.26485422699029
 20
79.55088286270207
 30
0.0
 10
37.40031403465832
 20
79.60425056902345
 30
0.0
 10
37.57396753166316
 20
79.66610454042107
 30
0.0
 10
37.76869625197663
 20
79.72847399942334
 30
0.0
 10
37.97357257644564
 20
79.78931631594611
 30
0.0
 10
38.18609163532443
 20
79.85056404914684
 30
0.0
 10
38.39555228206009
 20
79.91156439316589
 30
0.0
 10
38.59927779581815
 20
79.97373543852883
 30
0.0
 10
38.78758095494904
 20
80.03574201343748
 30
0.0
 10
38.95844472595656
 20
80.0975539439672
 30
0.0
 10
39.10317078576078
 20
80.15824777740843
 30
0.0
 10
39.22004544603587
 20
80.21961195855171
 30
0.0
 10
39.30200015975431
 20
80.2808949902363
 30
0.0
 10
39.34996477256635
 20
80.33919400171375
 30
0.0
 10
39.35241928594694
 20
80.37619007780995
 30
0.0
 10
39.35352655643088
 20
80.3928796030768
 30
0.0
  0
SPLINE
  5
109
330
1F
100
AcDbEntity
  8
0
  6
Continuous
 62
     7
370
    15
100
AcDbSpline
210
0.0
220
0.0
230
1.0
 70
     8
 71
     3
 72
    22
 73
    18
 74
     0
 42
0.000000001
 43
0.00000001
 40
0.0
 40
0.0
 40
0.0
 40
0.0
 40
0.0572510041465979
 40
0.1259257907611676
 40
0.1966001676773676
 40
0.2651430803974607
 40
0.3356689499165927
 40
0.4043024005816041
 40
0.4749245660730757
 40
0.543566657969004
 40
0.6142057160570996
 40
0.6827485922759772
 40
0.7532715315408671
 40
0.8219444556376464
 40
0.8926123856743946
 40
0.9612116155704145
 40
0.9999999999999999
 40
0.9999999999999999
 40
0.9999999999999999
 40
0.9999999999999999
 10
37.17974120335144
 20
81.70850871281706
 30
0.0
 10
37.21418627692789
 20
81.72549990327235
 30
0.0
 10
37.28994954418575
 20
81.76287268172317
 30
0.0
 10
37.44190702045039
 20
81.82028873830733
 30
0.0
 10
37.62140644359368
 20
81.88100336471632
 30
0.0
 10
37.8197709212107
 20
81.9426554065274
 30
0.0
 10
38.02619907070539
 20
82.00434171595175
 30
0.0
 10
38.2386075749075
 20
82.06689835556932
 30
0.0
 10
38.44695463874755
 20
82.12797065289942
 30
0.0
 10
38.64832432519815
 20
82.18921513656686
 30
0.0
 10
38.83261852008126
 20
82.25006485209602
 30
0.0
 10
38.99745944436223
 20
82.31204006151226
 30
0.0
 10
39.13487431617141
 20
82.37399245689322
 30
0.0
 10
39.24395752085712
 20
82.43615120371199
 30
0.0
 10
39.31698824598273
 20
82.4969293209702
 30
0.0
 10
39.35461519057651
 20
82.54885501510284
 30
0.0
 10
39.35259388981334
 20
82.58049688123502
 30
0.0
 10
39.35186379638922
 20
82.59192591683947
 30
0.0
  0
SPLINE
  5
10A
330
1F
100
AcDbEntity
  8
0
  6
Continuous
 62
     7
370
    15
100
AcDbSpline
210
0.0
220
0.0
230
1.0
 70
     8
 71
     3
 72
    15
 73
    11
 74
     0
 42
0.000000001
 43
0.00000001
 40
0.0
 40
0.0
 40
0.0
 40
0.0
 40
0.0616780300996236
 40
0.1930580800395384
 40
0.3206499634783536
 40
0.4519313835049055
 40
0.5796880240591734
 40
0.711158586378813
 40
0.853007182914759
 40
1.0
 40
1.0
 40
1.0
 40
1.0
 10
37.13357519408179
 20
83.85709410684191
 30
0.0
 10
37.14997248192527
 20
83.86539012269682
 30
0.0
 10
37.20129754700604
 20
83.89135743861692
 30
0.0
 10
37.31886076927364
 20
83.93473904674148
 30
0.0
 10
37.48092416717124
 20
83.98805594127933
 30
0.0
 10
37.66340508642227
 20
84.04108416516046
 30
0.0
 10
37.86240065632513
 20
84.0938194512111
 30
0.0
 10
38.07598205093195
 20
84.14775999044032
 30
0.0
 10
38.30376869174602
 20
84.20435287689705
 30
0.0
 10
38.45402286633799
 20
84.24376699050482
 30
0.0
 10
38.5304879553472
 20
84.26382502691828
 30
0.0
  0
SPLINE
  5
10B
330
1F
100
AcDbEntity
  8
0
  6
Continuous
 62
     7
370
    15
100
AcDbSpline
210
0.0
220
0.0
230
1.0
 70
     8
 71
     3
 72
    22
 73
    18
 74
     0
 42
0.000000001
 43
0.00000001
 40
0.0
 40
0.0
 40
0.0
 40
0.0
 40
0.0400276879097145
 40
0.1116160780193673
 40
0.1852807733153694
 40
0.256843200546353
 40
0.330488823935106
 40
0.4019318859125612
 40
0.4754348318696829
 40
0.5470790209100255
 40
0.620809305501118
 40
0.6923018669144505
 40
0.7658687574513321
 40
0.8373587282998961
 40
0.9109110153943769
 40
0.9825588245079994
 40
1.0
 40
1.0
 40
1.0
 40
1.0
 10
39.07694004991514
 20
84.02163272874438
 30
0.0
 10
39.05252097029443
 20
84.00854201817943
 30
0.0
 10
38.98442905596117
 20
83.97203894123321
 30
0.0
 10
38.84098465781034
 20
83.91115752561937
 30
0.0
 10
38.656439510982
 20
83.8412034201896
 30
0.0
 10
38.45280200412172
 20
83.771004507666
 30
0.0
 10
38.24233822257051
 20
83.70105238737091
 30
0.0
 10
38.0275464155506
 20
83.62971195636297
 30
0.0
 10
37.81884812352413
 20
83.55849702291246
 30
0.0
 10
37.6184547196111
 20
83.48729897533048
 30
0.0
 10
37.43647077703642
 20
83.41772664069147
 30
0.0
 10
37.27583114437985
 20
83.34735262196659
 30
0.0
 10
37.1447680707537
 20
83.27697995309572
 30
0.0
 10
37.0437279417033
 20
83.20526970240513
 30
0.0
 10
36.98151269938528
 20
83.13420464806823
 30
0.0
 10
36.95350138991108
 20
83.08198445702564
 30
0.0
 10
36.95907531765344
 20
83.05521680658948
 30
0.0
 10
36.96016653956336
 20
83.04997643606745
 30
0.0
  0
SPLINE
  5
10C
330
1F
100
AcDbEntity
  8
0
  6
Continuous
 62
     7
370
    15
100
AcDbSpline
210
0.0
220
0.0
230
1.0
 70
     8
 71
     3
 72
    22
 73
    18
 74
     0
 42
0.000000001
 43
0.00000001
 40
0.0
 40
0.0
 40
0.0
 40
0.0
 40
0.0300753327168685
 40
0.1006573991220021
 40
0.1691098664300771
 40
0.239542818128961
 40
0.3080799539877179
 40
0.3786025111211064
 40
0.4471567371647515
 40
0.5177056104077108
 40
0.5861556570239123
 40
0.6565835546102476
 40
0.7251611031544124
 40
0.7957304912294679
 40
0.8642423732760798
 40
0.9347443834218171
 40
0.9999999999999999
 40
0.9999999999999999
 40
0.9999999999999999
 40
0.9999999999999999
 10
39.13436784458769
 20
81.73231890575968
 30
0.0
 10
39.11769871163083
 20
81.72348934890212
 30
0.0
 10
39.0619097504628
 20
81.69393821352325
 30
0.0
 10
38.93696292328082
 20
81.64457101867603
 30
0.0
 10
38.76480892636835
 20
81.58292213786125
 30
0.0
 10
38.5740575107851
 20
81.5212778736131
 30
0.0
 10
38.3691691150458
 20
81.45870440335851
 30
0.0
 10
38.15911659919183
 20
81.39757690506686
 30
0.0
 10
37.9469509244349
 20
81.33633072403981
 30
0.0
 10
37.74326452984268
 20
81.27550311060916
 30
0.0
 10
37.55080036901242
 20
81.21356362716237
 30
0.0
 10
37.37871196023795
 20
81.15162956880287
 30
0.0
 10
37.22895433542988
 20
81.08941051761147
 30
0.0
 10
37.1086152854354
 20
81.02863393960915
 30
0.0
 10
37.02051833074001
 20
80.96736261883001
 30
0.0
 10
36.96607905736601
 20
80.90724386746956
 30
0.0
 10
36.96020567096606
 20
80.86684520763013
 30
0.0
 10
36.95738246714187
 20
80.84742648677909
 30
0.0
  0
SPLINE
  5
10D
330
1F
100
AcDbEntity
  8
0
  6
Continuous
 62
     7
370
    15
100
AcDbSpline
210
0.0
220
0.0
230
1.0
 70
     8
 71
     3
 72
    22
 73
    18
 74
     0
 42
0.000000001
 43
0.00000001
 40
0.0
 40
0.0
 40
0.0
 40
0.0
 40
0.0460678156305878
 40
0.1166203897646975
 40
0.1853149932978817
 40
0.2560092217593861
 40
0.3245734740438748
 40
0.3951238698296246
 40
0.4637328626484398
 40
0.5343263329130327
 40
0.6029999333497897
 40
0.6736726551821008
 40
0.742219840997925
 40
0.812749011778974
 40
0.8814013378169989
 40
0.9520447455519658
 40
1.0
 40
1.0
 40
1.0
 40
1.0
 10
39.1322086314061
 20
79.53166699187838
 30
0.0
 10
39.10528649945746
 20
79.51800288871047
 30
0.0
 10
39.03713328927872
 20
79.48341229622383
 30
0.0
 10
38.89659353983065
 20
79.42813482400543
 30
0.0
 10
38.71860497422497
 20
79.36658306077243
 30
0.0
 10
38.52371021929097
 20
79.3059004416192
 30
0.0
 10
38.31617599419253
 20
79.24443872034745
 30
0.0
 10
38.10580731609279
 20
79.18298261875206
 30
0.0
 10
37.89522867497612
 20
79.1204221870349
 30
0.0
 10
37.69426824372427
 20
79.05895519258222
 30
0.0
 10
37.50554028769574
 20
78.99765375439347
 30
0.0
 10
37.3385648365219
 20
78.93692446673683
 30
0.0
 10
37.19571842026492
 20
78.87517733063646
 30
0.0
 10
37.08333093173281
 20
78.81340603199477
 30
0.0
 10
37.00435150944461
 20
78.75091350546603
 30
0.0
 10
36.9610640793949
 20
78.6960355341719
 30
0.0
 10
36.96057417821239
 20
78.66139844473159
 30
0.0
 10
36.96037608714265
 20
78.64739297108733
 30
0.0
  0
SPLINE
  5
10E
330
1F
100
AcDbEntity
  8
0
  6
Continuous
 62
     7
370
    15
100
AcDbSpline
210
0.0
220
0.0
230
1.0
 70
     8
 71
     3
 72
    22
 73
    18
 74
     0
 42
0.000000001
 43
0.00000001
 40
0.0
 40
0.0
 40
0.0
 40
0.0
 40
0.0659206636851409
 40
0.1363647237680981
 40
0.2047476345094305
 40
0.2751054301474202
 40
0.3436228541808953
 40
0.4141330319551795
 40
0.4825447003664816
 40
0.552940881470581
 40
0.621352191935175
 40
0.6917402346985891
 40
0.7602537585293144
 40
0.830762093451974
 40
0.8991422684883723
 40
0.969501790216083
 40
1.0
 40
1.0
 40
1.0
 40
1.0
 10
39.13941177123648
 20
77.3333843626269
 30
0.0
 10
39.09868646583016
 20
77.31408721369141
 30
0.0
 10
39.01444133370239
 20
77.27416876874574
 30
0.0
 10
38.85388549041303
 20
77.21395993729175
 30
0.0
 10
38.67090608495197
 20
77.1518239166548
 30
0.0
 10
38.47328935250801
 20
77.089820174509
 30
0.0
 10
38.26390109649506
 20
77.0279362277743
 30
0.0
 10
38.05282963529614
 20
76.9672341816037
 30
0.0
 10
37.84321564384057
 20
76.90589588341018
 30
0.0
 10
37.64535559709723
 20
76.84463366253414
 30
0.0
 10
37.46167069488214
 20
76.78219857529818
 30
0.0
 10
37.300742906026
 20
76.72040419618037
 30
0.0
 10
37.16471365507792
 20
76.6589819998812
 30
0.0
 10
37.0598552512358
 20
76.59829619371322
 30
0.0
 10
36.99023920125436
 20
76.53674102589947
 30
0.0
 10
36.95671400599171
 20
76.48641355514351
 30
0.0
 10
36.96002066652097
 20
76.45633264086828
 30
0.0
 10
36.96102056236428
 20
76.44723652081572
 30
0.0
  0
SPLINE
  5
10F
330
1F
100
AcDbEntity
  8
0
  6
Continuous
 62
     7
370
    15
100
AcDbSpline
210
0.0
220
0.0
230
1.0
 70
     8
 71
     3
 72
    23
 73
    19
 74
     0
 42
0.000000001
 43
0.00000001
 40
0.0
 40
0.0
 40
0.0
 40
0.0
 40
0.0121401427608644
 40
0.080787033860361
 40
0.1514224134474144
 40
0.2200880002386558
 40
0.2907514563910488
 40
0.3593118340340211
 40
0.4298531451827648
 40
0.4985406814319159
 40
0.569223279073651
 40
0.6378465035485581
 40
0.7084629852792113
 40
0.7770410597767199
 40
0.8475997537121636
 40
0.916307344444969
 40
0.9870144997912975
 40
1.0
 40
1.0
 40
1.0
 40
1.0
 10
39.13291521420193
 20
75.13140624539935
 30
0.0
 10
39.12654549020924
 20
75.12780879462494
 30
0.0
 10
39.08415792376827
 20
75.10386942395625
 30
0.0
 10
38.97536420862379
 20
75.0586278519316
 30
0.0
 10
38.81115705936205
 20
74.99752397592624
 30
0.0
 10
38.62212569752737
 20
74.93626694761298
 30
0.0
 10
38.42136250166931
 20
74.8754457523246
 30
0.0
 10
38.21065588903848
 20
74.81351009591656
 30
0.0
 10
38.00040169073589
 20
74.75158154651362
 30
0.0
 10
37.79281260538939
 20
74.68935360139541
 30
0.0
 10
37.59794530339324
 20
74.6285718611936
 30
0.0
 10
37.4187011914734
 20
74.56730545153926
 30
0.0
 10
37.26385069457532
 20
74.50622965154929
 30
0.0
 10
37.13558536081181
 20
74.4439716087176
 30
0.0
 10
37.03881988415385
 20
74.38199433500384
 30
0.0
 10
36.97881618549524
 20
74.32030446518915
 30
0.0
 10
36.95291630133009
 20
74.27590724035868
 30
0.0
 10
36.95847738294524
 20
74.25138176441119
 30
0.0
 10
36.95934022360903
 20
74.24757646547639
 30
0.0
  0
SPLINE
  5
110
330
1F
100
AcDbEntity
  8
0
  6
Continuous
 62
     7
370
    15
100
AcDbSpline
210
0.0
220
0.0
230
1.0
 70
     8
 71
     3
 72
    10
 73
     6
 74
     0
 42
0.000000001
 43
0.00000001
 40
0.0
 40
0.0
 40
0.0
 40
0.0
 40
0.1910665507500668
 40
0.5911133391145103
 40
1.0
 40
1.0
 40
1.0
 40
1.0
 10
39.12977205872026
 20
72.93039390968167
 30
0.0
 10
39.11383640341265
 20
72.92198986833958
 30
0.0
 10
39.06453536990949
 20
72.89598981275542
 30
0.0
 10
38.9556082211734
 20
72.85194930762077
 30
0.0
 10
38.85578894732684
 20
72.8159397277105
 30
0.0
 10
38.80533390728247
 20
72.79773818479859
 30
0.0
  0
SPLINE
  5
111
330
1F
100
AcDbEntity
  8
0
  6
Continuous
 62
     7
370
    15
100
AcDbSpline
210
0.0
220
0.0
230
1.0
 70
     8
 71
     3
 72
    11
 73
     7
 74
     0
 42
0.000000001
 43
0.00000001
 40
0.0
 40
0.0
 40
0.0
 40
0.0
 40
0.0004798117235972
 40
0.0004798117235972
 40
0.0004798117235972
 40
0.000909442991786
 40
0.000909442991786
 40
0.000909442991786
 40
0.000909442991786
 10
39.60368803576672
 20
73.18765691131678
 30
0.0
 10
39.46266026934373
 20
73.12158786620108
 30
0.0
 10
39.32173216357302
 20
73.05457002780231
 30
0.0
 10
39.18126861029265
 20
72.98601988277025
 30
0.0
 10
39.05550145783979
 20
72.92464199263738
 30
0.0
 10
38.93011739796852
 20
72.86197619238482
 30
0.0
 10
38.80533393376852
 20
72.79773790891919
 30
0.0
  0
SPLINE
  5
112
330
1F
100
AcDbEntity
  8
0
  6
Continuous
 62
     7
370
    15
100
AcDbSpline
210
0.0
220
0.0
230
1.0
 70
     8
 71
     3
 72
     8
 73
     4
 74
     0
 42
0.000000001
 43
0.00000001
 40
0.0
 40
0.0
 40
0.0
 40
0.0
 40
0.0001769240610816
 40
0.0001769240610816
 40
0.0001769240610816
 40
0.0001769240610816
 10
39.57351932054304
 20
73.19979790670367
 30
0.0
 10
39.58497164899752
 20
73.19518907341701
 30
0.0
 10
39.59507287529465
 20
73.1911239650702
 30
0.0
 10
39.60368803576672
 20
73.18765691131678
 30
0.0
  0
SPLINE
  5
113
330
1F
100
AcDbEntity
  8
0
  6
Continuous
 62
     7
370
    15
100
AcDbSpline
210
0.0
220
0.0
230
1.0
 70
    24
 71
     3
 72
    14
 73
    10
 74
     0
 42
0.000000001
 43
0.00000001
 40
0.0001105593368599
 40
0.0001105593368599
 40
0.0001105593368599
 40
0.0001105593368599
 40
0.0004798322721257
 40
0.0004798322721257
 40
0.0004798322721257
 40
0.0008012424418615
 40
0.0008012424418615
 40
0.0008012424418615
 40
0.0011227068026919
 40
0.0011227068026919
 40
0.0011227068026919
 40
0.0011227068026919
 10
37.53553470912894
 20
68.00655954633191
 30
0.0
 10
37.55783525171543
 20
68.06197338374565
 30
0.0
 10
37.57967020055391
 20
68.11623028355255
 30
0.0
 10
37.60109287695258
 20
68.1694627420149
 30
0.0
 10
37.61974002674329
 20
68.21579839159492
 30
0.0
 10
37.63808603952604
 20
68.26138575637347
 30
0.0
 10
37.65620893798857
 20
68.30641871218491
 30
0.0
 10
37.67433505065943
 20
68.35145965487007
 30
0.0
 10
37.69223967393592
 20
68.39595022631472
 30
0.0
 10
37.70998609584285
 20
68.44004768871557
 30
0.0
  0
SPLINE
  5
114
330
1F
100
AcDbEntity
  8
0
  6
Continuous
 62
     7
370
    15
100
AcDbSpline
210
0.0
220
0.0
230
1.0
 70
     8
 71
     3
 72
    20
 73
    16
 74
     0
 42
0.000000001
 43
0.00000001
 40
0.0
 40
0.0
 40
0.0
 40
0.0
 40
0.0303595570854376
 40
0.1152195966360001
 40
0.1999997736223336
 40
0.2848268318901845
 40
0.3696122943137688
 40
0.4544820669431312
 40
0.5393522461119649
 40
0.6241380774084044
 40
0.7089650190169637
 40
0.7937450693496448
 40
0.8786045439078792
 40
0.9634828375150274
 40
1.0
 40
1.0
 40
1.0
 40
1.0
 10
37.70998607322996
 20
68.44004726188265
 30
0.0
 10
37.75316615963447
 20
68.44785097447158
 30
0.0
 10
37.91704180921112
 20
68.47746736888172
 30
0.0
 10
38.20894577588847
 20
68.52898028310595
 30
0.0
 10
38.57837726260919
 20
68.59458803906385
 30
0.0
 10
38.93295616315107
 20
68.66008198765466
 30
0.0
 10
39.25882660957885
 20
68.72569963726424
 30
0.0
 10
39.54671626050199
 20
68.79120778792586
 30
0.0
 10
39.78788826797507
 20
68.85671250644084
 30
0.0
 10
39.97386023885094
 20
68.92233343391815
 30
0.0
 10
40.09380237806646
 20
68.98782238483449
 30
0.0
 10
40.1435889410031
 20
69.0534418972525
 30
0.0
 10
40.12156548847926
 20
69.11896006006285
 30
0.0
 10
40.06150649572373
 20
69.17203232930777
 30
0.0
 10
39.9864895926464
 20
69.20331742819951
 30
0.0
 10
39.96392363732171
 20
69.21272834913813
 30
0.0
  0
SPLINE
  5
115
330
1F
100
AcDbEntity
  8
0
  6
Continuous
 62
     7
370
    15
100
AcDbSpline
210
0.0
220
0.0
230
1.0
 70
     8
 71
     3
 72
    11
 73
     7
 74
     0
 42
0.000000001
 43
0.00000001
 40
0.0
 40
0.0
 40
0.0
 40
0.0
 40
0.0343931347778721
 40
0.3136197869751384
 40
0.6569812888022136
 40
1.0
 40
1.0
 40
1.0
 40
1.0
 10
36.34050477811557
 20
70.02855854259812
 30
0.0
 10
36.33350421919697
 20
70.03125072799732
 30
0.0
 10
36.26966840396994
 20
70.0557998892427
 30
0.0
 10
36.20454374168735
 20
70.10720420665777
 30
0.0
 10
36.15872239090792
 20
70.18273499121469
 30
0.0
 10
36.21804135669942
 20
70.23650813899016
 30
0.0
 10
36.24768602711571
 20
70.26338128523909
 30
0.0
  0
SPLINE
  5
116
330
1F
100
AcDbEntity
  8
0
  6
Continuous
 62
     7
370
    15
100
AcDbSpline
210
0.0
220
0.0
230
1.0
 70
     8
 71
     3
 72
     8
 73
     4
 74
     0
 42
0.000000001
 43
0.00000001
 40
0.0
 40
0.0
 40
0.0
 40
0.0
 40
1.0
 40
1.0
 40
1.0
 40
1.0
 10
37.07748757701567
 20
70.00537150703538
 30
0.0
 10
36.79582401072556
 20
70.07345904968122
 30
0.0
 10
36.52098704968354
 20
70.16685937875054
 30
0.0
 10
36.24768605191457
 20
70.26338158320218
 30
0.0
  0
SPLINE
  5
117
330
1F
100
AcDbEntity
  8
0
  6
Continuous
 62
     7
370
    15
100
AcDbSpline
210
0.0
220
0.0
230
1.0
 70
     8
 71
     3
 72
    10
 73
     6
 74
     0
 42
0.000000001
 43
0.00000001
 40
0.0
 40
0.0
 40
0.0
 40
0.0
 40
0.3446626591149448
 40
0.7276464729391909
 40
1.0
 40
1.0
 40
1.0
 40
1.0
 10
37.07748757259411
 20
70.00537140445792
 30
0.0
 10
37.05297025558866
 20
69.98714358548824
 30
0.0
 10
37.00120967528453
 20
69.94866129611952
 30
0.0
 10
36.96134744032114
 20
69.89640806075775
 30
0.0
 10
36.96086134384911
 20
69.86198888628016
 30
0.0
 10
36.96065932562065
 20
69.8476845227369
 30
0.0
  0
SPLINE
  5
118
330
1F
100
AcDbEntity
  8
0
  6
Continuous
 62
     7
370
    15
100
AcDbSpline
210
0.0
220
0.0
230
1.0
 70
     8
 71
     3
 72
    15
 73
    11
 74
     0
 42
0.000000001
 43
0.00000001
 40
0.0
 40
0.0
 40
0.0
 40
0.0
 40
0.1139594465456014
 40
0.2288905804623461
 40
0.3471424407327989
 40
0.4622859804803864
 40
0.5807736046810654
 40
0.6958115229413764
 40
0.8141910910905482
 40
1.0
 40
1.0
 40
1.0
 40
1.0
 10
39.14064065137369
 20
68.53440420852982
 30
0.0
 10
39.09880202441285
 20
68.51452789771336
 30
0.0
 10
39.01476802897763
 20
68.4746057985971
 30
0.0
 10
38.85296719159827
 20
68.41345516733487
 30
0.0
 10
38.67173835192579
 20
68.35153443298131
 30
0.0
 10
38.47212742766818
 20
68.28929449985917
 30
0.0
 10
38.26435162757396
 20
68.22851248554194
 30
0.0
 10
38.05175765463932
 20
68.16723970107059
 30
0.0
 10
37.80052246056763
 20
68.09378469963322
 30
0.0
 10
37.63601909619237
 20
68.03963559933256
 30
0.0
 10
37.53553471577776
 20
68.00655944423758
 30
0.0
  0
SPLINE
  5
119
330
1F
100
AcDbEntity
  8
0
  6
Continuous
 62
     7
370
    15
100
AcDbSpline
210
0.0
220
0.0
230
1.0
 70
    24
 71
     3
 72
     8
 73
     4
 74
     0
 42
0.000000001
 43
0.00000001
 40
0.0
 40
0.0
 40
0.0
 40
0.0
 40
1.0
 40
1.0
 40
1.0
 40
1.0
 10
36.74465854312646
 20
66.0413390542393
 30
0.0
 10
36.75805327399397
 20
66.07462315195191
 30
0.0
 10
36.76803688300009
 20
66.09943107232506
 30
0.0
 10
36.77166453326269
 20
66.10844529343943
 30
0.0
  0
SPLINE
  5
11A
330
1F
100
AcDbEntity
  8
0
  6
Continuous
 62
     7
370
    15
100
AcDbSpline
210
0.0
220
0.0
230
1.0
 70
     8
 71
     3
 72
     8
 73
     4
 74
     0
 42
0.000000001
 43
0.00000001
 40
0.0
 40
0.0
 40
0.0
 40
0.0
 40
0.0003968403501468
 40
0.0003968403501468
 40
0.0003968403501468
 40
0.0003968403501468
 10
36.41688302116825
 20
65.94412357921168
 30
0.0
 10
36.53530250084419
 20
65.99818418399425
 30
0.0
 10
36.65363555274561
 20
66.05283194461958
 30
0.0
 10
36.77166453326247
 20
66.10844529343937
 30
0.0
  0
LINE
  5
11B
330
1F
100
AcDbEntity
  8
0
  6
Continuous
 62
     7
370
    15
100
AcDbLine
 10
39.0065811323
 20
60.2698591192
 30
0.0
 11
38.3505058806
 21
60.5416143899
 31
0.0
  0
SPLINE
  5
11C
330
1F
100
AcDbEntity
  8
0
  6
Continuous
 62
     7
370
    15
100
AcDbSpline
210
0.0
220
0.0
230
1.0
 70
     8
 71
     3
 72
    14
 73
    10
 74
     0
 42
0.000000001
 43
0.00000001
 40
0.0
 40
0.0
 40
0.0
 40
0.0
 40
0.0387459245154815
 40
0.2041401740170247
 40
0.37372414494024
 40
0.5448020634285693
 40
0.7242211096267186
 40
0.9097258778362205
 40
1.0
 40
1.0
 40
1.0
 40
1.0
 10
37.88030681133692
 20
62.01491836143666
 30
0.0
 10
37.89212089996436
 20
62.02568482808112
 30
0.0
 10
37.95436564282223
 20
62.08240997793451
 30
0.0
 10
38.12117400750837
 20
62.18348493944401
 30
0.0
 10
38.35266137068275
 20
62.31188921488613
 30
0.0
 10
38.58278222970799
 20
62.43886971513925
 30
0.0
 10
38.76765929920606
 20
62.56872726097845
 30
0.0
 10
38.87960878638197
 20
62.67329053808776
 30
0.0
 10
38.88767836952123
 20
62.73350962701348
 30
0.0
 10
38.89031988618386
 20
62.75322188774133
 30
0.0
  0
SPLINE
  5
11D
330
1F
100
AcDbEntity
  8
0
  6
Continuous
 62
     7
370
    15
100
AcDbSpline
210
0.0
220
0.0
230
1.0
 70
     8
 71
     3
 72
    16
 73
    12
 74
     0
 42
0.000000001
 43
0.00000001
 40
0.0
 40
0.0
 40
0.0
 40
0.0
 40
0.0070415492995493
 40
0.1195160648426476
 40
0.2321735056173697
 40
0.348000754277722
 40
0.4625204617229633
 40
0.580190025095344
 40
0.6978584706236628
 40
0.818806379887809
 40
0.9999999999999999
 40
0.9999999999999999
 40
0.9999999999999999
 40
0.9999999999999999
 10
37.32162324994293
 20
64.09057572634899
 30
0.0
 10
37.32359640198501
 20
64.0917745739229
 30
0.0
 10
37.35708666916521
 20
64.11212258801544
 30
0.0
 10
37.44708196018421
 20
64.15138596542765
 30
0.0
 10
37.59103545238514
 20
64.20854462601567
 30
0.0
 10
37.75817511274226
 20
64.26473167466614
 30
0.0
 10
37.94103995848513
 20
64.3211581786192
 30
0.0
 10
38.13393962727992
 20
64.37769773229955
 30
0.0
 10
38.3330799125284
 20
64.43514866904457
 30
0.0
 10
38.56635101554856
 20
64.50224602610659
 30
0.0
 10
38.72022506298727
 20
64.54882728578079
 30
0.0
 10
38.81250299563122
 20
64.57676196621739
 30
0.0
  0
SPLINE
  5
11E
330
1F
100
AcDbEntity
  8
0
  6
Continuous
 62
     7
370
    15
100
AcDbSpline
210
0.0
220
0.0
230
1.0
 70
     8
 71
     3
 72
    13
 73
     9
 74
     0
 42
0.000000001
 43
0.00000001
 40
0.0
 40
0.0
 40
0.0
 40
0.0
 40
0.1749842646439327
 40
0.3550386105503265
 40
0.530123965613765
 40
0.7102640131579326
 40
0.8857019730215252
 40
1.0
 40
1.0
 40
1.0
 40
1.0
 10
38.81250299563122
 20
64.57676196621739
 30
0.0
 10
38.86881259560241
 20
64.59778772192082
 30
0.0
 10
38.98306333794824
 20
64.64044844404863
 30
0.0
 10
39.12263865272102
 20
64.70468118711196
 30
0.0
 10
39.23522399491011
 20
64.77017655748601
 30
0.0
 10
39.31170400443563
 20
64.83528604727718
 30
0.0
 10
39.35309025151303
 20
64.89198024912231
 30
0.0
 10
39.35238130528064
 20
64.9267980289516
 30
0.0
 10
39.35210163289172
 20
64.94053330423318
 30
0.0
  0
SPLINE
  5
11F
330
1F
100
AcDbEntity
  8
0
  6
Continuous
 62
     7
370
    15
100
AcDbSpline
210
0.0
220
0.0
230
1.0
 70
     8
 71
     3
 72
    23
 73
    19
 74
     0
 42
0.000000001
 43
0.00000001
 40
0.0
 40
0.0
 40
0.0
 40
0.0
 40
0.0059965191494446
 40
0.0766451830007394
 40
0.1450434387965632
 40
0.2154217107679258
 40
0.2838892315025501
 40
0.3543388480651309
 40
0.4228441695978205
 40
0.4933432252858475
 40
0.5617336168489634
 40
0.6321005753269774
 40
0.700610450388233
 40
0.7711090467833419
 40
0.8395736734050522
 40
0.9100279731150948
 40
0.9784313638362957
 40
1.0
 40
1.0
 40
1.0
 40
1.0
 10
37.1748639834435
 20
66.30657583625995
 30
0.0
 10
37.17794655594061
 20
66.30833902296945
 30
0.0
 10
37.217346802528
 20
66.33087539192725
 30
0.0
 10
37.32096028033965
 20
66.37320020568235
 30
0.0
 10
37.48399639364695
 20
66.43482567647735
 30
0.0
 10
37.66908794909098
 20
66.49638694686526
 30
0.0
 10
37.86997424921844
 20
66.55897247552082
 30
0.0
 10
38.07839516585278
 20
66.62023705441794
 30
0.0
 10
38.29129163950343
 20
66.68149935321973
 30
0.0
 10
38.49804012593405
 20
66.74227995553755
 30
0.0
 10
38.6958132029
 20
66.80413829222921
 30
0.0
 10
38.87513602084589
 20
66.86601139551323
 30
0.0
 10
39.03409620618618
 20
66.92836008822464
 30
0.0
 10
39.16474137433382
 20
66.98919304453455
 30
0.0
 10
39.26601333753054
 20
67.05044614753209
 30
0.0
 10
39.32948655502911
 20
67.11144815831608
 30
0.0
 10
39.35851077115424
 20
67.15914467291692
 30
0.0
 10
39.35369949474773
 20
67.18596907144372
 30
0.0
 10
39.35254610659045
 20
67.19239957781517
 30
0.0
  0
SPLINE
  5
120
330
1F
100
AcDbEntity
  8
0
  6
Continuous
 62
     7
370
    15
100
AcDbSpline
210
0.0
220
0.0
230
1.0
 70
     8
 71
     3
 72
    14
 73
    10
 74
     0
 42
0.000000001
 43
0.00000001
 40
0.0
 40
0.0
 40
0.0
 40
0.0
 40
0.0003045865977506
 40
0.0003045865977506
 40
0.0003045865977506
 40
0.0006063887180569
 40
0.0006063887180569
 40
0.0006063887180569
 40
0.0008989663652858
 40
0.0008989663652858
 40
0.0008989663652858
 40
0.0008989663652858
 10
36.27424403608796
 20
68.07823086859982
 30
0.0
 10
36.36671213133775
 20
68.11939631957247
 30
0.0
 10
36.45907812026944
 20
68.16089959486838
 30
0.0
 10
36.55125061473316
 20
68.20290927381522
 30
0.0
 10
36.64257971293912
 20
68.24453455602615
 30
0.0
 10
36.73372697217707
 20
68.28665503858551
 30
0.0
 10
36.82453880091595
 20
68.32954992618508
 30
0.0
 10
36.91257282624716
 20
68.3711327207831
 30
0.0
 10
37.00030527280693
 20
68.41344180102955
 30
0.0
 10
37.08747982804387
 20
68.45691365583991
 30
0.0
  0
SPLINE
  5
121
330
1F
100
AcDbEntity
  8
0
  6
Continuous
 62
     7
370
    15
100
AcDbSpline
210
0.0
220
0.0
230
1.0
 70
     8
 71
     3
 72
    14
 73
    10
 74
     0
 42
0.000000001
 43
0.00000001
 40
0.0
 40
0.0
 40
0.0
 40
0.0
 40
0.0003045806468033
 40
0.0003045806468033
 40
0.0003045806468033
 40
0.0005747810951537
 40
0.0005747810951537
 40
0.0005747810951537
 40
0.0008369041872645
 40
0.0008369041872645
 40
0.0008369041872645
 40
0.0008369041872645
 10
37.70998608371598
 20
68.44004768510928
 30
0.0
 10
37.72524997710348
 20
68.47797639931862
 30
0.0
 10
37.74045331417977
 20
68.51575461274321
 30
0.0
 10
37.75555420273035
 20
68.55327828194093
 30
0.0
 10
37.76895052026499
 20
68.58656632230712
 30
0.0
 10
37.78226758421224
 20
68.61965742820911
 30
0.0
 10
37.79544590971548
 20
68.65240378780952
 30
0.0
 10
37.808230166271
 20
68.68417093928021
 30
0.0
 10
37.82088830994983
 20
68.71562471727945
 30
0.0
 10
37.83329916143941
 20
68.74646400757663
 30
0.0
  0
SPLINE
  5
122
330
1F
100
AcDbEntity
  8
0
  6
Continuous
 62
     7
370
    15
100
AcDbSpline
210
0.0
220
0.0
230
1.0
 70
     8
 71
     3
 72
    18
 73
    14
 74
     0
 42
0.000000001
 43
0.00000001
 40
0.0
 40
0.0
 40
0.0
 40
0.0
 40
0.1375069163544617
 40
0.2314683515864822
 40
0.3281463038070398
 40
0.4222199240432693
 40
0.5190324339967709
 40
0.6129259853390744
 40
0.7095357196079678
 40
0.8035559608064975
 40
0.9003009146541482
 40
0.9943289366978696
 40
1.0
 40
1.0
 40
1.0
 40
1.0
 10
37.83329914839429
 20
68.74646356480204
 30
0.0
 10
37.93308288809718
 20
68.77602922930197
 30
0.0
 10
38.1010510045854
 20
68.82579774863751
 30
0.0
 10
38.34374841252343
 20
68.89722613387221
 30
0.0
 10
38.54807074604777
 20
68.95883293109739
 30
0.0
 10
38.74266069757942
 20
69.02017690086834
 30
0.0
 10
38.91736853358042
 20
69.08088053299002
 30
0.0
 10
39.06997202962579
 20
69.14254631690719
 30
0.0
 10
39.19278266902232
 20
69.20424460241267
 30
0.0
 10
39.28586830362377
 20
69.2667876249419
 30
0.0
 10
39.33942197153356
 20
69.32787595948047
 30
0.0
 10
39.36198743990067
 20
69.3696383261658
 30
0.0
 10
39.35587683160331
 20
69.39097495547786
 30
0.0
 10
39.35552924921227
 20
69.39218862133109
 30
0.0
  0
SPLINE
  5
123
330
1F
100
AcDbEntity
  8
0
  6
Continuous
 62
     7
370
    15
100
AcDbSpline
210
0.0
220
0.0
230
1.0
 70
     8
 71
     3
 72
    14
 73
    10
 74
     0
 42
0.000000001
 43
0.00000001
 40
0.0
 40
0.0
 40
0.0
 40
0.0
 40
0.0003045878126705
 40
0.0003045878126705
 40
0.0003045878126705
 40
0.0006247029987402
 40
0.0006247029987402
 40
0.0006247029987402
 40
0.000937872214067
 40
0.000937872214067
 40
0.000937872214067
 40
0.000937872214067
 10
36.24768605191459
 20
70.26338158320218
 30
0.0
 10
36.34029647896597
 20
70.30493259220921
 30
0.0
 10
36.43273577604692
 20
70.34684266608545
 30
0.0
 10
36.52491469638425
 20
70.38926659152393
 30
0.0
 10
36.62179141298706
 20
70.43385260518998
 30
0.0
 10
36.7183896031815
 20
70.47900738080025
 30
0.0
 10
36.81454849168554
 20
70.52500000520676
 30
0.0
 10
36.9086183447723
 20
70.56999344770914
 30
0.0
 10
37.00227983214566
 20
70.6157985885068
 30
0.0
 10
37.09525938739548
 20
70.66284646120407
 30
0.0
  0
SPLINE
  5
124
330
1F
100
AcDbEntity
  8
0
  6
Continuous
 62
     7
370
    15
100
AcDbSpline
210
0.0
220
0.0
230
1.0
 70
     8
 71
     3
 72
    13
 73
     9
 74
     0
 42
0.000000001
 43
0.00000001
 40
0.0
 40
0.0
 40
0.0
 40
0.0
 40
0.1233483458652964
 40
0.3036812670416959
 40
0.4892638761642016
 40
0.6692482231510108
 40
0.8544451830533374
 40
1.0
 40
1.0
 40
1.0
 40
1.0
 10
38.84320334581149
 20
71.25593925045811
 30
0.0
 10
38.88111184101103
 20
71.26989135523519
 30
0.0
 10
38.97444183074928
 20
71.30424117019928
 30
0.0
 10
39.10329346090839
 20
71.358846947799
 30
0.0
 10
39.21949393921399
 20
71.41952670997863
 30
0.0
 10
39.3022846285688
 20
71.48101466552222
 30
0.0
 10
39.35004097111887
 20
71.53864498527184
 30
0.0
 10
39.35264902372409
 20
71.57614760069595
 30
0.0
 10
39.35379675639284
 20
71.59265147672974
 30
0.0
  0
LINE
  5
125
330
1F
100
AcDbEntity
  8
0
  6
Continuous
 62
     7
370
    15
100
AcDbLine
 10
37.1692751167
 20
72.9028435253
 30
0.0
 11
37.3891600273
 21
72.9999804698
 31
0.0
  0
SPLINE
  5
126
330
1F
100
AcDbEntity
  8
0
  6
Continuous
 62
     7
370
    15
100
AcDbSpline
210
0.0
220
0.0
230
1.0
 70
     8
 71
     3
 72
    14
 73
    10
 74
     0
 42
0.000000001
 43
0.00000001
 40
0.0
 40
0.0
 40
0.0
 40
0.0
 40
0.000304587225197
 40
0.000304587225197
 40
0.000304587225197
 40
0.0007516368315312
 40
0.0007516368315312
 40
0.0007516368315312
 40
0.001187011595286
 40
0.001187011595286
 40
0.001187011595286
 40
0.001187011595286
 10
36.32569571218338
 20
72.50472582706487
 30
0.0
 10
36.41743180535924
 20
72.546235709932
 30
0.0
 10
36.50896580677097
 20
72.58800882420644
 30
0.0
 10
36.600264628018
 20
72.63007625202341
 30
0.0
 10
36.73426203849866
 20
72.69181775444443
 30
0.0
 10
36.86773498281647
 20
72.7542569136232
 30
0.0
 10
37.00078008428642
 20
72.81707887197874
 30
0.0
 10
37.13035257797733
 20
72.87826111553929
 30
0.0
 10
37.25947066451408
 20
72.93993231686659
 30
0.0
 10
37.38916004819421
 20
72.99998035210407
 30
0.0
  0
SPLINE
  5
127
330
1F
100
AcDbEntity
  8
0
  6
Continuous
 62
     7
370
    15
100
AcDbSpline
210
0.0
220
0.0
230
1.0
 70
     8
 71
     3
 72
    16
 73
    12
 74
     0
 42
0.000000001
 43
0.00000001
 40
0.0
 40
0.0
 40
0.0
 40
0.0
 40
0.0921652697111255
 40
0.1842523124968687
 40
0.2763317212308994
 40
0.3979287273871329
 40
0.51956561441186
 40
0.6412836021992371
 40
0.7628852250013833
 40
0.8845021343270243
 40
0.9999999999999999
 40
0.9999999999999999
 40
0.9999999999999999
 40
0.9999999999999999
 10
38.66407258718696
 20
70.81082387046897
 30
0.0
 10
38.76324214204912
 20
70.82919116892737
 30
0.0
 10
38.96149707983542
 20
70.86591017627026
 30
0.0
 10
39.23651311972698
 20
70.92105635232654
 30
0.0
 10
39.51242228421297
 20
70.98204600823821
 30
0.0
 10
39.76566571909597
 20
71.04901318699203
 30
0.0
 10
39.97093398641086
 20
71.12186453386343
 30
0.0
 10
40.10126097234217
 20
71.19461625061939
 30
0.0
 10
40.14907442040919
 20
71.2675100225976
 30
0.0
 10
40.11570006664986
 20
71.33909683394938
 30
0.0
 10
40.02239017572671
 20
71.38645543144327
 30
0.0
 10
39.97693921954793
 20
71.40952365623795
 30
0.0
  0
SPLINE
  5
128
330
1F
100
AcDbEntity
  8
0
  6
Continuous
 62
     7
370
    15
100
AcDbSpline
210
0.0
220
0.0
230
1.0
 70
     8
 71
     3
 72
    11
 73
     7
 74
     0
 42
0.000000001
 43
0.00000001
 40
0.0
 40
0.0
 40
0.0
 40
0.0
 40
0.2101627065960411
 40
0.4734191893009406
 40
0.7365706812052029
 40
1.0
 40
1.0
 40
1.0
 40
1.0
 10
36.34315846537662
 20
72.22922722028576
 30
0.0
 10
36.30194418751319
 20
72.2485351598909
 30
0.0
 10
36.20910359590796
 20
72.29202883801769
 30
0.0
 10
36.16537403547185
 20
72.3596454717467
 30
0.0
 10
36.19358390724855
 20
72.43224759487987
 30
0.0
 10
36.28164294990094
 20
72.48055768631994
 30
0.0
 10
36.32569570144129
 20
72.50472547637307
 30
0.0
  0
SPLINE
  5
129
330
1F
100
AcDbEntity
  8
0
  6
Continuous
 62
     7
370
    15
100
AcDbSpline
210
0.0
220
0.0
230
1.0
 70
     8
 71
     3
 72
    14
 73
    10
 74
     0
 42
0.000000001
 43
0.00000001
 40
0.0
 40
0.0
 40
0.0
 40
0.0
 40
0.0003045830275056
 40
0.0003045830275056
 40
0.0003045830275056
 40
0.0006091702087311
 40
0.0006091702087311
 40
0.0006091702087311
 40
0.0010423167890381
 40
0.0010423167890381
 40
0.0010423167890381
 40
0.0010423167890381
 10
38.66407254386755
 20
70.81082379788353
 30
0.0
 10
38.68086621064231
 20
70.85255379241744
 30
0.0
 10
38.69779695650217
 20
70.89462430790769
 30
0.0
 10
38.71491171917291
 20
70.93715218239022
 30
0.0
 10
38.73202661772911
 20
70.97968039452981
 30
0.0
 10
38.74932713297453
 20
71.02266983908099
 30
0.0
 10
38.76686527689577
 20
71.06624975880813
 30
0.0
 10
38.79180494363143
 20
71.12822146341048
 30
0.0
 10
38.81725653029447
 20
71.19146521991536
 30
0.0
 10
38.84320335961552
 20
71.25593958756012
 30
0.0
  0
SPLINE
  5
12A
330
1F
100
AcDbEntity
  8
0
  6
Continuous
 62
     7
370
    15
100
AcDbSpline
210
0.0
220
0.0
230
1.0
 70
     8
 71
     3
 72
    10
 73
     6
 74
     0
 42
0.000000001
 43
0.00000001
 40
0.0
 40
0.0
 40
0.0
 40
0.0
 40
0.5
 40
0.5
 40
1.0
 40
1.0
 40
1.0
 40
1.0
 10
37.23471804335973
 20
72.29026527613408
 30
0.0
 10
37.07993774382798
 20
72.30696292628444
 30
0.0
 10
36.92721276034236
 20
72.33873777877031
 30
0.0
 10
36.62443555600363
 20
72.41411230507568
 30
0.0
 10
36.47461261510428
 20
72.45801894567526
 30
0.0
 10
36.32569571218328
 20
72.50472582706483
 30
0.0
  0
SPLINE
  5
12B
330
1F
100
AcDbEntity
  8
0
  6
Continuous
 62
     7
370
    15
100
AcDbSpline
210
0.0
220
0.0
230
1.0
 70
     8
 71
     3
 72
    12
 73
     8
 74
     0
 42
0.000000001
 43
0.00000001
 40
0.0
 40
0.0
 40
0.0
 40
0.0
 40
0.0037089008416779
 40
0.2531369072128967
 40
0.5098183242297342
 40
0.7589389689629383
 40
1.0
 40
1.0
 40
1.0
 40
1.0
 10
37.23471804804591
 20
72.29026517050349
 30
0.0
 10
37.23405921179936
 20
72.28996714763518
 30
0.0
 10
37.18909285197222
 20
72.26962673132739
 30
0.0
 10
37.10790219157207
 20
72.22865107791621
 30
0.0
 10
37.02079365253631
 20
72.16776588814565
 30
0.0
 10
36.96613621473781
 20
72.10690955922657
 30
0.0
 10
36.96044232490326
 20
72.06675099031925
 30
0.0
 10
36.95764218972487
 20
72.04700185136878
 30
0.0
  0
SPLINE
  5
12C
330
1F
100
AcDbEntity
  8
0
  6
Continuous
 62
     7
370
    15
100
AcDbSpline
210
0.0
220
0.0
230
1.0
 70
     8
 71
     3
 72
    11
 73
     7
 74
     0
 42
0.000000001
 43
0.00000001
 40
0.0
 40
0.0
 40
0.0
 40
0.0
 40
0.1736964737204707
 40
0.4568497003333642
 40
0.7482379526441991
 40
1.0
 40
1.0
 40
1.0
 40
1.0
 10
39.12303923679006
 20
70.72694709675395
 30
0.0
 10
39.09839904206628
 20
70.71439726748179
 30
0.0
 10
39.0335913615498
 20
70.68138919530037
 30
0.0
 10
38.89528442049596
 20
70.62787479002826
 30
0.0
 10
38.72589638431791
 20
70.56938190209057
 30
0.0
 10
38.60174606250889
 20
70.53082714903417
 30
0.0
 10
38.54419967209411
 20
70.51295617746197
 30
0.0
  0
SPLINE
  5
12D
330
1F
100
AcDbEntity
  8
0
  6
Continuous
 62
     7
370
    15
100
AcDbSpline
210
0.0
220
0.0
230
1.0
 70
    24
 71
     3
 72
    14
 73
    10
 74
     0
 42
0.000000001
 43
0.00000001
 40
0.0000781109276968
 40
0.0000781109276968
 40
0.0000781109276968
 40
0.0000781109276968
 40
0.0002399120885154
 40
0.0002399120885154
 40
0.0002399120885154
 40
0.0004798030517568
 40
0.0004798030517568
 40
0.0004798030517568
 40
0.0009158026311012
 40
0.0009158026311012
 40
0.0009158026311012
 40
0.0009158026311012
 10
38.54419968597556
 20
70.51295582862525
 30
0.0
 10
38.55144837604988
 20
70.53096784477613
 30
0.0
 10
38.55885627162021
 20
70.54937546508954
 30
0.0
 10
38.56636734237146
 20
70.56803946179717
 30
0.0
 10
38.5775037109233
 20
70.59571183406874
 30
0.0
 10
38.58886669504711
 20
70.62394731544008
 30
0.0
 10
38.60036051645332
 20
70.65250790979316
 30
0.0
 10
38.62125028813161
 20
70.70441617197561
 30
0.0
 10
38.64256710850834
 20
70.75738559251556
 30
0.0
 10
38.66407259767708
 20
70.81082382953055
 30
0.0
  0
LINE
  5
12E
330
1F
100
AcDbEntity
  8
0
  6
Continuous
 62
     7
370
    15
100
AcDbLine
 10
39.4815810821
 20
94.4738231428
 30
0.0
 11
36.83158116
 21
94.4738231428
 31
0.0
  0
LINE
  5
12F
330
1F
100
AcDbEntity
  8
0
  6
Continuous
 62
     7
370
    15
100
AcDbLine
 10
36.512411675
 20
95.7138232716
 30
0.0
 11
36.355860774
 21
95.7138232716
 31
0.0
  0
LINE
  5
130
330
1F
100
AcDbEntity
  8
0
  6
Continuous
 62
     7
370
    15
100
AcDbLine
 10
39.4815810821
 20
85.2638251908
 30
0.0
 11
36.83158116
 21
85.2638251908
 31
0.0
  0
LINE
  5
131
330
1F
100
AcDbEntity
  8
0
  6
Continuous
 62
     7
370
    15
100
AcDbLine
 10
38.5304879553
 20
84.2638250269
 30
0.0
 11
36.9565810641
 21
84.2638250269
 31
0.0
  0
SPLINE
  5
132
330
1F
100
AcDbEntity
  8
0
  6
Continuous
 62
     7
370
    15
100
AcDbSpline
210
0.0
220
0.0
230
1.0
 70
     8
 71
     3
 72
     8
 73
     4
 74
     0
 42
0.000000001
 43
0.00000001
 40
0.0
 40
0.0
 40
0.0
 40
0.0
 40
1.0
 40
1.0
 40
1.0
 40
1.0
 10
39.04676675416626
 20
71.76176713885279
 30
0.0
 10
38.9907254304072
 20
72.1138732207445
 30
0.0
 10
38.9177904351188
 20
72.46179901634376
 30
0.0
 10
38.80533393376852
 20
72.79773790891919
 30
0.0
  0
SPLINE
  5
133
330
1F
100
AcDbEntity
  8
0
  6
Continuous
 62
     7
370
    15
100
AcDbSpline
210
0.0
220
0.0
230
1.0
 70
     8
 71
     3
 72
     8
 73
     4
 74
     0
 42
0.000000001
 43
0.00000001
 40
0.0
 40
0.0
 40
0.0
 40
0.0
 40
1.0
 40
1.0
 40
1.0
 40
1.0
 10
37.1132725526313
 20
67.82866667927269
 30
0.0
 10
37.12645946463758
 20
67.58183864498955
 30
0.0
 10
37.14349392195382
 20
67.33520752254107
 30
0.0
 10
37.16619307931632
 20
67.08879546300602
 30
0.0
  0
SPLINE
  5
134
330
1F
100
AcDbEntity
  8
0
  6
Continuous
 62
     7
370
    15
100
AcDbSpline
210
0.0
220
0.0
230
1.0
 70
     8
 71
     3
 72
     8
 73
     4
 74
     0
 42
0.000000001
 43
0.00000001
 40
0.0
 40
0.0
 40
0.0
 40
0.0
 40
1.0
 40
1.0
 40
1.0
 40
1.0
 10
37.0774875770161
 20
70.00537150703602
 30
0.0
 10
37.06915209212821
 20
69.48840392102433
 30
0.0
 10
37.07217171948405
 20
68.97225890966183
 30
0.0
 10
37.08747982805136
 20
68.45691365583798
 30
0.0
  0
SPLINE
  5
135
330
1F
100
AcDbEntity
  8
0
  6
Continuous
 62
     7
370
    15
100
AcDbSpline
210
0.0
220
0.0
230
1.0
 70
     8
 71
     3
 72
    10
 73
     6
 74
     0
 42
0.000000001
 43
0.00000001
 40
0.0
 40
0.0
 40
0.0
 40
0.0
 40
0.5
 40
0.5
 40
1.0
 40
1.0
 40
1.0
 40
1.0
 10
37.23471804335921
 20
72.29026527613415
 30
0.0
 10
37.19330889943923
 20
72.0237800936493
 30
0.0
 10
37.16475627644164
 20
71.75431980259944
 30
0.0
 10
37.12095394953865
 20
71.2113002637148
 30
0.0
 10
37.105931399732
 20
70.93705676088187
 30
0.0
 10
37.09525938738756
 20
70.66284646120005
 30
0.0
  0
SPLINE
  5
136
330
1F
100
AcDbEntity
  8
0
  6
Continuous
 62
     7
370
    15
100
AcDbSpline
210
0.0
220
0.0
230
1.0
 70
     8
 71
     3
 72
    20
 73
    16
 74
     0
 42
0.000000001
 43
0.00000001
 40
0.0
 40
0.0
 40
0.0
 40
0.0
 40
0.125
 40
0.125
 40
0.25
 40
0.25
 40
0.375
 40
0.375
 40
0.5
 40
0.5
 40
0.625
 40
0.625
 40
0.75
 40
0.75
 40
1.0
 40
1.0
 40
1.0
 40
1.0
 10
38.55539790809846
 20
73.36145101366664
 30
0.0
 10
38.51689944594846
 20
73.42547206042867
 30
0.0
 10
38.47440698387272
 20
73.48756058469925
 30
0.0
 10
38.37915914740442
 20
73.6021902945076
 30
0.0
 10
38.32610773198424
 20
73.65572090156572
 30
0.0
 10
38.2007450446833
 20
73.74420938720263
 30
0.0
 10
38.1289554412655
 20
73.77734389178663
 30
0.0
 10
37.97745156000892
 20
73.79385873070106
 30
0.0
 10
37.90018526918857
 20
73.77459299317488
 30
0.0
 10
37.77129922197491
 20
73.70117685379306
 30
0.0
 10
37.71702826393901
 20
73.64899368485337
 30
0.0
 10
37.62447522881006
 20
73.5350756679359
 30
0.0
 10
37.58520909099383
 20
73.47202212943347
 30
0.0
 10
37.48261240020705
 20
73.2786488579762
 30
0.0
 10
37.43198166577462
 20
73.1413454647516
 30
0.0
 10
37.38916004819649
 20
72.99998035211162
 30
0.0
  0
LINE
  5
137
330
1F
100
AcDbEntity
  8
0
  6
Continuous
 62
     7
370
    15
100
AcDbLine
 10
38.8125029956
 20
64.5767619662
 30
0.0
 11
36.9565810641
 21
64.5767619662
 31
0.0
  0
LINE
  5
138
330
1F
100
AcDbEntity
  8
0
  6
Continuous
 62
     7
370
    15
100
AcDbLine
 10
38.199386642
 20
59.9355082322
 30
0.0
 11
38.3505058806
 21
60.5416143899
 31
0.0
  0
LWPOLYLINE
  5
139
330
1F
100
AcDbEntity
  8
0
  6
Continuous
 62
     7
370
    15
100
AcDbPolyline
 90
        5
 70
   128
 43
0.0
 10
37.5355347158
 20
68.0065594442
 10
37.4297150509
 20
67.7436121568
 10
37.3321629693
 20
67.5012084484
 10
37.2439880255
 20
67.2821054995
 10
37.1661931374
 20
67.0887955293
  0
LWPOLYLINE
  5
13A
330
1F
100
AcDbEntity
  8
0
  6
Continuous
 62
     7
370
    15
100
AcDbPolyline
 90
        4
 70
   128
 43
0.0
 10
39.0467667701
 20
71.7617675491
 10
38.9834992336
 20
71.6045556419
 10
38.9155154797
 20
71.435625834
 10
38.8432033458
 20
71.2559392505
  0
LWPOLYLINE
  5
13B
330
1F
100
AcDbEntity
  8
0
  6
Continuous
 62
     7
370
    15
100
AcDbPolyline
 90
        7
 70
   128
 43
0.0
 10
38.5441996721
 20
70.5129561775
 10
38.428556795
 20
70.2255984597
 10
38.310181141
 20
69.9314514004
 10
38.1902621364
 20
69.6334691547
 10
38.0700047124
 20
69.3346449934
 10
37.9506171837
 20
69.0379833631
 10
37.8332991484
 20
68.7464635648
  0
SPLINE
  5
13C
330
1F
100
AcDbEntity
  8
0
  6
Continuous
 62
     7
370
    15
100
AcDbSpline
210
0.0
220
0.0
230
1.0
 70
     8
 71
     3
 72
    10
 73
     6
 74
     0
 42
0.000000001
 43
0.00000001
 40
0.0
 40
0.0
 40
0.0
 40
0.0
 40
0.5
 40
0.5
 40
1.0
 40
1.0
 40
1.0
 40
1.0
 10
34.98561174133826
 20
96.878247436174
 30
0.0
 10
35.23446477427176
 20
96.67631176585286
 30
0.0
 10
35.48465462668641
 20
96.4762491019112
 30
0.0
 10
35.99132570789207
 20
96.08493856783856
 30
0.0
 10
36.24735826081325
 20
95.89306206177109
 30
0.0
 10
36.51241170861478
 20
95.71382465462278
 30
0.0
  0
LINE
  5
13D
330
1F
100
AcDbEntity
  8
0
  6
Continuous
 62
     8
370
    15
100
AcDbLine
 10
41.3450065633
 20
96.878248436
 30
0.0
 11
41.3350723782
 21
96.878248436
 31
0.0
  0
LINE
  5
13E
330
1F
100
AcDbEntity
  8
0
  6
Continuous
 62
     8
370
    15
100
AcDbLine
 10
34.8439605539
 20
97.3055057056
 30
0.0
 11
41.4692016882
 21
97.3055057056
 31
0.0
  0
CIRCLE
  5
13F
330
1F
100
AcDbEntity
  8
0
  6
Continuous
 62
     7
370
    15
100
AcDbCircle
 10
38.210347839
 20
108.6522282892
 30
0.0
 40
3.331310318965023
  0
SPLINE
  5
140
330
1F
100
AcDbEntity
  8
0
  6
Continuous
 62
     7
370
    15
100
AcDbSpline
210
0.0
220
0.0
230
1.0
 70
     8
 71
     3
 72
    14
 73
    10
 74
     0
 42
0.000000001
 43
0.00000001
 40
0.0
 40
0.0
 40
0.0
 40
0.0
 40
0.25
 40
0.25
 40
0.5000000000000001
 40
0.5000000000000001
 40
0.7500000000000001
 40
0.7500000000000001
 40
1.0
 40
1.0
 40
1.0
 40
1.0
 10
36.95495861094462
 20
108.989721270603
 30
0.0
 10
37.02291197930921
 20
108.963654943128
 30
0.0
 10
37.08147277203493
 20
108.9173876196785
 30
0.0
 10
37.16354152428323
 20
108.7983947095061
 30
0.0
 10
37.18617121860095
 20
108.7256903615696
 30
0.0
 10
37.1862394975503
 20
108.5813319313386
 30
0.0
 10
37.16352195293189
 20
108.5083527950326
 30
0.0
 10
37.08179593240562
 20
108.3896683675914
 30
0.0
 10
37.02292754411847
 20
108.3430325088904
 30
0.0
 10
36.95495861094463
 20
108.3169602108884
 30
0.0
  0
SPLINE
  5
141
330
1F
100
AcDbEntity
  8
0
  6
Continuous
 62
     7
370
    15
100
AcDbSpline
210
0.0
220
0.0
230
1.0
 70
     8
 71
     3
 72
    10
 73
     6
 74
     0
 42
0.000000001
 43
0.00000001
 40
0.0
 40
0.0
 40
0.0
 40
0.0
 40
0.5
 40
0.5
 40
1.0
 40
1.0
 40
1.0
 40
1.0
 10
36.95495861094464
 20
108.3169602108884
 30
0.0
 10
36.899995394122
 20
108.1978472079765
 30
0.0
 10
36.90602647840115
 20
108.0531642901055
 30
0.0
 10
37.03852387505697
 20
107.8237586365736
 30
0.0
 10
37.16065255826933
 20
107.7462935863613
 30
0.0
 10
37.29133914080197
 20
107.7343320424985
 30
0.0
  0
SPLINE
  5
142
330
1F
100
AcDbEntity
  8
0
  6
Continuous
 62
     7
370
    15
100
AcDbSpline
210
0.0
220
0.0
230
1.0
 70
     8
 71
     3
 72
    14
 73
    10
 74
     0
 42
0.000000001
 43
0.00000001
 40
0.0
 40
0.0
 40
0.0
 40
0.0
 40
0.2499999999999999
 40
0.2499999999999999
 40
0.4999999999999998
 40
0.4999999999999998
 40
0.7499999999999999
 40
0.7499999999999999
 40
1.0
 40
1.0
 40
1.0
 40
1.0
 10
37.29133914080197
 20
107.7343320424985
 30
0.0
 10
37.34735726760774
 20
107.7796713464307
 30
0.0
 10
37.41653854854204
 20
107.8076032218568
 30
0.0
 10
37.56199969729323
 20
107.8192553976439
 30
0.0
 10
37.63511385886351
 20
107.8026521335933
 30
0.0
 10
37.76070409832585
 20
107.7303072383823
 30
0.0
 10
37.81229930089614
 20
107.6743382051898
 30
0.0
 10
37.87428463154274
 20
107.5443715415925
 30
0.0
 10
37.88529409111317
 20
107.4695823828034
 30
0.0
 10
37.87396730919182
 20
107.3979515126412
 30
0.0
  0
SPLINE
  5
143
330
1F
100
AcDbEntity
  8
0
  6
Continuous
 62
     7
370
    15
100
AcDbSpline
210
0.0
220
0.0
230
1.0
 70
     8
 71
     3
 72
    10
 73
     6
 74
     0
 42
0.000000001
 43
0.00000001
 40
0.0
 40
0.0
 40
0.0
 40
0.0
 40
0.5
 40
0.5
 40
1.0
 40
1.0
 40
1.0
 40
1.0
 10
37.87396730919182
 20
107.3979515126412
 30
0.0
 10
37.95021559142619
 20
107.2899812428141
 30
0.0
 10
38.07851481913589
 20
107.2238170882973
 30
0.0
 10
38.34144032605712
 20
107.2235806831131
 30
0.0
 10
38.4704757210863
 20
107.2899750609899
 30
0.0
 10
38.54672836890649
 20
107.3979515126412
 30
0.0
  0
SPLINE
  5
144
330
1F
100
AcDbEntity
  8
0
  6
Continuous
 62
     7
370
    15
100
AcDbSpline
210
0.0
220
0.0
230
1.0
 70
     8
 71
     3
 72
    14
 73
    10
 74
     0
 42
0.000000001
 43
0.00000001
 40
0.0
 40
0.0
 40
0.0
 40
0.0
 40
0.25
 40
0.25
 40
0.5
 40
0.5
 40
0.75
 40
0.75
 40
1.0
 40
1.0
 40
1.0
 40
1.0
 10
38.54672836890649
 20
107.3979515126412
 30
0.0
 10
38.53579165310046
 20
107.4690768403818
 30
0.0
 10
38.54643837794652
 20
107.5427849091112
 30
0.0
 10
38.60918004925093
 20
107.6740803836177
 30
0.0
 10
38.66015863707281
 20
107.7290310714096
 30
0.0
 10
38.78529048499463
 20
107.801426191032
 30
0.0
 10
38.85945940853559
 20
107.8181875693439
 30
0.0
 10
39.00273220644316
 20
107.8071918601397
 30
0.0
 10
39.07299191102289
 20
107.7795560503737
 30
0.0
 10
39.12935653729639
 20
107.7343320424985
 30
0.0
  0
SPLINE
  5
145
330
1F
100
AcDbEntity
  8
0
  6
Continuous
 62
     7
370
    15
100
AcDbSpline
210
0.0
220
0.0
230
1.0
 70
     8
 71
     3
 72
    10
 73
     6
 74
     0
 42
0.000000001
 43
0.00000001
 40
0.0
 40
0.0
 40
0.0
 40
0.0
 40
0.5
 40
0.5
 40
1.0
 40
1.0
 40
1.0
 40
1.0
 10
39.12935653729681
 20
107.7343320424986
 30
0.0
 10
39.26008591112478
 20
107.7462972601565
 30
0.0
 10
39.38218621390454
 20
107.8237108630356
 30
0.0
 10
39.51476725539605
 20
108.0534052772614
 30
0.0
 10
39.52068029643577
 20
108.1978911003105
 30
0.0
 10
39.46573706715366
 20
108.3169602108884
 30
0.0
  0
SPLINE
  5
146
330
1F
100
AcDbEntity
  8
0
  6
Continuous
 62
     7
370
    15
100
AcDbSpline
210
0.0
220
0.0
230
1.0
 70
     8
 71
     3
 72
    14
 73
    10
 74
     0
 42
0.000000001
 43
0.00000001
 40
0.0
 40
0.0
 40
0.0
 40
0.0
 40
0.2499999999999999
 40
0.2499999999999999
 40
0.4999999999999999
 40
0.4999999999999999
 40
0.7499999999999999
 40
0.7499999999999999
 40
1.0
 40
1.0
 40
1.0
 40
1.0
 10
39.46573706715367
 20
108.3169602108884
 30
0.0
 10
39.39778357461216
 20
108.3430266233763
 30
0.0
 10
39.33922231346113
 20
108.3892942969956
 30
0.0
 10
39.25715315757053
 20
108.5082889436386
 30
0.0
 10
39.23452394306782
 20
108.5809941846289
 30
0.0
 10
39.2344569315436
 20
108.7253528121375
 30
0.0
 10
39.25717499177098
 20
108.7983309039154
 30
0.0
 10
39.33890044469067
 20
108.9170134471979
 30
0.0
 10
39.39776830839517
 20
108.9636490021173
 30
0.0
 10
39.46573706715367
 20
108.989721270603
 30
0.0
  0
SPLINE
  5
147
330
1F
100
AcDbEntity
  8
0
  6
Continuous
 62
     7
370
    15
100
AcDbSpline
210
0.0
220
0.0
230
1.0
 70
     8
 71
     3
 72
    10
 73
     6
 74
     0
 42
0.000000001
 43
0.00000001
 40
0.0
 40
0.0
 40
0.0
 40
0.0
 40
0.5
 40
0.5
 40
1.0
 40
1.0
 40
1.0
 40
1.0
 10
39.46573706715367
 20
108.989721270603
 30
0.0
 10
39.52069981214533
 20
109.108833250991
 30
0.0
 10
39.51466980813913
 20
109.2535149261167
 30
0.0
 10
39.38217307934001
 20
109.4829218469347
 30
0.0
 10
39.26004407792109
 20
109.5603878074374
 30
0.0
 10
39.12935653729632
 20
109.5723494389929
 30
0.0
  0
SPLINE
  5
148
330
1F
100
AcDbEntity
  8
0
  6
Continuous
 62
     7
370
    15
100
AcDbSpline
210
0.0
220
0.0
230
1.0
 70
     8
 71
     3
 72
    14
 73
    10
 74
     0
 42
0.000000001
 43
0.00000001
 40
0.0
 40
0.0
 40
0.0
 40
0.0
 40
0.25
 40
0.25
 40
0.5
 40
0.5
 40
0.75
 40
0.75
 40
1.0
 40
1.0
 40
1.0
 40
1.0
 10
39.12935653729633
 20
109.5723494389929
 30
0.0
 10
39.07334864014857
 20
109.5269725669091
 30
0.0
 10
39.00416219303217
 20
109.4990074844912
 30
0.0
 10
38.85866393053288
 20
109.4873167091087
 30
0.0
 10
38.78553644742299
 20
109.5039139070854
 30
0.0
 10
38.65991226398532
 20
109.5762789290183
 30
0.0
 10
38.608316042514
 20
109.6322642650676
 30
0.0
 10
38.54634793734706
 20
109.7622768875238
 30
0.0
 10
38.53536402524412
 20
109.8370911604504
 30
0.0
 10
38.54672836890649
 20
109.9087299688502
 30
0.0
  0
SPLINE
  5
149
330
1F
100
AcDbEntity
  8
0
  6
Continuous
 62
     7
370
    15
100
AcDbSpline
210
0.0
220
0.0
230
1.0
 70
     8
 71
     3
 72
    10
 73
     6
 74
     0
 42
0.000000001
 43
0.00000001
 40
0.0
 40
0.0
 40
0.0
 40
0.0
 40
0.5
 40
0.5
 40
1.0
 40
1.0
 40
1.0
 40
1.0
 10
38.54672836890649
 20
109.9087299688502
 30
0.0
 10
38.47048020278151
 20
110.0167000742623
 30
0.0
 10
38.34218099341616
 20
110.0828643911833
 30
0.0
 10
38.07925522942789
 20
110.0831008003785
 30
0.0
 10
37.95021984161076
 20
110.0167062570894
 30
0.0
 10
37.8739673091918
 20
109.9087299688502
 30
0.0
  0
SPLINE
  5
14A
330
1F
100
AcDbEntity
  8
0
  6
Continuous
 62
     7
370
    15
100
AcDbSpline
210
0.0
220
0.0
230
1.0
 70
     8
 71
     3
 72
    14
 73
    10
 74
     0
 42
0.000000001
 43
0.00000001
 40
0.0
 40
0.0
 40
0.0
 40
0.0
 40
0.2500000000000002
 40
0.2500000000000002
 40
0.5000000000000003
 40
0.5000000000000003
 40
0.7500000000000001
 40
0.7500000000000001
 40
1.0
 40
1.0
 40
1.0
 40
1.0
 10
37.8739673091918
 20
109.9087299688502
 30
0.0
 10
37.88528089141343
 20
109.8374064459285
 30
0.0
 10
37.87480647659017
 20
109.7634920294813
 30
0.0
 10
37.81237249321456
 20
109.6320069153259
 30
0.0
 10
37.7612107099157
 20
109.5766867584125
 30
0.0
 10
37.6359099781216
 20
109.504192006372
 30
0.0
 10
37.56148190213791
 20
109.4874505514122
 30
0.0
 10
37.41794997178672
 20
109.4988082147864
 30
0.0
 10
37.34767403970534
 20
109.5267085869683
 30
0.0
 10
37.29133914080196
 20
109.5723494389929
 30
0.0
  0
SPLINE
  5
14B
330
1F
100
AcDbEntity
  8
0
  6
Continuous
 62
     7
370
    15
100
AcDbSpline
210
0.0
220
0.0
230
1.0
 70
     8
 71
     3
 72
    10
 73
     6
 74
     0
 42
0.000000001
 43
0.00000001
 40
0.0
 40
0.0
 40
0.0
 40
0.0
 40
0.5
 40
0.5
 40
1.0
 40
1.0
 40
1.0
 40
1.0
 10
37.29133914080192
 20
109.5723494389929
 30
0.0
 10
37.16060894770364
 20
109.5603839035214
 30
0.0
 10
37.03850818878266
 20
109.4829688255847
 30
0.0
 10
36.9059285117126
 20
109.2532743695595
 30
0.0
 10
36.90001611330347
 20
109.1087893721415
 30
0.0
 10
36.95495861094463
 20
108.989721270603
 30
0.0
  0
CIRCLE
  5
14C
330
1F
100
AcDbEntity
  8
0
  6
Continuous
 62
     7
370
    15
100
AcDbCircle
 10
38.210347839
 20
108.6522282892
 30
0.0
 40
1.647850503268145
  0
CIRCLE
  5
14D
330
1F
100
AcDbEntity
  8
0
  6
Continuous
 62
     7
370
    15
100
AcDbCircle
 10
38.210347839
 20
108.6522282892
 30
0.0
 40
2.549999999999997
  0
CIRCLE
  5
14E
330
1F
100
AcDbEntity
  8
0
  6
Continuous
 62
     7
370
    15
100
AcDbCircle
 10
38.210347839
 20
108.6522282892
 30
0.0
 40
3.312620637930067
  0
INSERT
  5
15A
330
1F
100
AcDbEntity
  8
0
  6
Continuous
 62
     7
370
     0
100
AcDbBlockReference
  2
SW_CENTERMARKSYMBOL_0
 10
38.210347839
 20
108.6522282892
 30
0.0
  0
ENDSEC
  0
SECTION
  2
OBJECTS
  0
DICTIONARY
  5
C
330
0
100
AcDbDictionary
281
     1
  3
ACAD_GROUP
350
D
  3
ACAD_LAYOUT
350
1A
  3
ACAD_MLINESTYLE
350
17
  3
ACAD_PLOTSETTINGS
350
19
  3
ACAD_PLOTSTYLENAME
350
E
  3
ACAD_SCALELIST
350
47
  0
DICTIONARY
  5
D
102
{ACAD_REACTORS
330
C
102
}
330
C
100
AcDbDictionary
281
     1
  0
DICTIONARY
  5
1A
102
{ACAD_REACTORS
330
C
102
}
330
C
100
AcDbDictionary
281
     1
  3
Layout1
350
1E
  3
Layout2
350
26
  3
Model
350
22
  0
DICTIONARY
  5
17
102
{ACAD_REACTORS
330
C
102
}
330
C
100
AcDbDictionary
281
     1
  3
Standard
350
18
  0
DICTIONARY
  5
19
102
{ACAD_REACTORS
330
C
102
}
330
C
100
AcDbDictionary
281
     1
  0
ACDBDICTIONARYWDFLT
  5
E
102
{ACAD_REACTORS
330
C
102
}
330
C
100
AcDbDictionary
281
     1
  3
Normal
350
F
100
AcDbDictionaryWithDefault
340
F
  0
DICTIONARY
  5
47
102
{ACAD_REACTORS
330
C
102
}
330
C
100
AcDbDictionary
281
     1
  3
A0
350
48
  3
A1
350
49
  3
A2
350
4A
  3
A3
350
4B
  3
A4
350
4C
  3
A5
350
4D
  3
A6
350
4E
  3
A7
350
4F
  3
A8
350
50
  3
A9
350
51
  3
B0
350
52
  3
B1
350
53
  3
B2
350
54
  3
B3
350
55
  3
B4
350
56
  3
B5
350
57
  3
B6
350
58
  3
B7
350
59
  3
B8
350
5A
  3
B9
350
5B
  3
C0
350
5C
  3
C1
350
5D
  3
C2
350
5E
  3
C3
350
5F
  3
C4
350
60
  3
C5
350
61
  3
C6
350
62
  3
C7
350
63
  3
C8
350
64
  3
C9
350
65
  3
D0
350
66
  3
D1
350
67
  3
D2
350
68
  0
LAYOUT
  5
1E
102
{ACAD_REACTORS
330
1A
102
}
330
1A
100
AcDbPlotSettings
  1

  2
none_device
  4

  6

 40
0.0
 41
0.0
 42
0.0
 43
0.0
 44
0.0
 45
0.0
 46
0.0
 47
0.0
 48
0.0
 49
0.0
140
0.0
141
0.0
142
1.0
143
1.0
 70
   688
 72
     1
 73
     0
 74
     5
  7

 75
    16
147
1.0
148
0.0
149
0.0
100
AcDbLayout
  1
Layout1
 70
     1
 71
     1
 10
0.0
 20
0.0
 11
420.0
 21
297.0
 12
0.0
 22
0.0
 32
0.0
 14
1.0000000000E+20
 24
1.0000000000E+20
 34
1.0000000000E+20
 15
-1.0000000000E+20
 25
-1.0000000000E+20
 35
-1.0000000000E+20
146
0.0
 13
0.0
 23
0.0
 33
0.0
 16
1.0
 26
0.0
 36
0.0
 17
0.0
 27
1.0
 37
0.0
 76
     0
330
1B
  0
LAYOUT
  5
26
102
{ACAD_REACTORS
330
1A
102
}
330
1A
100
AcDbPlotSettings
  1

  2
none_device
  4

  6

 40
0.0
 41
0.0
 42
0.0
 43
0.0
 44
0.0
 45
0.0
 46
0.0
 47
0.0
 48
0.0
 49
0.0
140
0.0
141
0.0
142
1.0
143
1.0
 70
   688
 72
     1
 73
     0
 74
     5
  7

 75
    16
147
1.0
148
0.0
149
0.0
100
AcDbLayout
  1
Layout2
 70
     1
 71
     2
 10
0.0
 20
0.0
 11
0.0
 21
0.0
 12
0.0
 22
0.0
 32
0.0
 14
0.0
 24
0.0
 34
0.0
 15
0.0
 25
0.0
 35
0.0
146
0.0
 13
0.0
 23
0.0
 33
0.0
 16
1.0
 26
0.0
 36
0.0
 17
0.0
 27
1.0
 37
0.0
 76
     0
330
23
  0
LAYOUT
  5
22
102
{ACAD_REACTORS
330
1A
102
}
330
1A
100
AcDbPlotSettings
  1

  2
none_device
  4
Letter_(8.50_x_11.00_Inches)
  6

 40
6.35
 41
6.35
 42
6.35000508
 43
6.35000508
 44
215.9
 45
279.4
 46
0.0
 47
0.0
 48
0.0
 49
0.0
140
0.0
141
0.0
142
1.0
143
1.0
 70
  1712
 72
     1
 73
     0
 74
     0
  7

 75
     0
147
1.0
148
0.0
149
0.0
100
AcDbLayout
  1
Model
 70
     1
 71
     0
 10
0.0
 20
0.0
 11
279.4
 21
215.9
 12
0.0
 22
0.0
 32
0.0
 14
0.0
 24
0.0
 34
0.0
 15
279.4
 25
215.9
 35
0.0
146
0.0
 13
0.0
 23
0.0
 33
0.0
 16
1.0
 26
0.0
 36
0.0
 17
0.0
 27
1.0
 37
0.0
 76
     0
330
1F
331
29
  0
MLINESTYLE
  5
18
102
{ACAD_REACTORS
330
17
102
}
330
17
100
AcDbMlineStyle
  2
Standard
 70
     0
  3

 62
   256
 51
90.0
 52
90.0
 71
     2
 49
0.5
 62
   256
  6
BYLAYER
 49
-0.5
 62
   256
  6
BYLAYER
  0
ACDBPLACEHOLDER
  5
F
102
{ACAD_REACTORS
330
E
102
}
330
E
  0
SCALE
  5
48
102
{ACAD_REACTORS
330
47
102
}
330
47
100
AcDbScale
 70
     0
300
1:1
140
1.0
141
1.0
290
     1
  0
SCALE
  5
49
102
{ACAD_REACTORS
330
47
102
}
330
47
100
AcDbScale
 70
     0
300
1:2
140
1.0
141
2.0
290
     0
  0
SCALE
  5
4A
102
{ACAD_REACTORS
330
47
102
}
330
47
100
AcDbScale
 70
     0
300
1:4
140
1.0
141
4.0
290
     0
  0
SCALE
  5
4B
102
{ACAD_REACTORS
330
47
102
}
330
47
100
AcDbScale
 70
     0
300
1:5
140
1.0
141
5.0
290
     0
  0
SCALE
  5
4C
102
{ACAD_REACTORS
330
47
102
}
330
47
100
AcDbScale
 70
     0
300
1:8
140
1.0
141
8.0
290
     0
  0
SCALE
  5
4D
102
{ACAD_REACTORS
330
47
102
}
330
47
100
AcDbScale
 70
     0
300
1:10
140
1.0
141
10.0
290
     0
  0
SCALE
  5
4E
102
{ACAD_REACTORS
330
47
102
}
330
47
100
AcDbScale
 70
     0
300
1:16
140
1.0
141
16.0
290
     0
  0
SCALE
  5
4F
102
{ACAD_REACTORS
330
47
102
}
330
47
100
AcDbScale
 70
     0
300
1:20
140
1.0
141
20.0
290
     0
  0
SCALE
  5
50
102
{ACAD_REACTORS
330
47
102
}
330
47
100
AcDbScale
 70
     0
300
1:30
140
1.0
141
30.0
290
     0
  0
SCALE
  5
51
102
{ACAD_REACTORS
330
47
102
}
330
47
100
AcDbScale
 70
     0
300
1:40
140
1.0
141
40.0
290
     0
  0
SCALE
  5
52
102
{ACAD_REACTORS
330
47
102
}
330
47
100
AcDbScale
 70
     0
300
1:50
140
1.0
141
50.0
290
     0
  0
SCALE
  5
53
102
{ACAD_REACTORS
330
47
102
}
330
47
100
AcDbScale
 70
     0
300
1:100
140
1.0
141
100.0
290
     0
  0
SCALE
  5
54
102
{ACAD_REACTORS
330
47
102
}
330
47
100
AcDbScale
 70
     0
300
2:1
140
2.0
141
1.0
290
     0
  0
SCALE
  5
55
102
{ACAD_REACTORS
330
47
102
}
330
47
100
AcDbScale
 70
     0
300
4:1
140
4.0
141
1.0
290
     0
  0
SCALE
  5
56
102
{ACAD_REACTORS
330
47
102
}
330
47
100
AcDbScale
 70
     0
300
8:1
140
8.0
141
1.0
290
     0
  0
SCALE
  5
57
102
{ACAD_REACTORS
330
47
102
}
330
47
100
AcDbScale
 70
     0
300
10:1
140
10.0
141
1.0
290
     0
  0
SCALE
  5
58
102
{ACAD_REACTORS
330
47
102
}
330
47
100
AcDbScale
 70
     0
300
100:1
140
100.0
141
1.0
290
     0
  0
SCALE
  5
59
102
{ACAD_REACTORS
330
47
102
}
330
47
100
AcDbScale
 70
     0
300
1/128" = 1'-0"
140
0.0078125
141
12.0
290
     0
  0
SCALE
  5
5A
102
{ACAD_REACTORS
330
47
102
}
330
47
100
AcDbScale
 70
     0
300
1/64" = 1'-0"
140
0.015625
141
12.0
290
     0
  0
SCALE
  5
5B
102
{ACAD_REACTORS
330
47
102
}
330
47
100
AcDbScale
 70
     0
300
1/32" = 1'-0"
140
0.03125
141
12.0
290
     0
  0
SCALE
  5
5C
102
{ACAD_REACTORS
330
47
102
}
330
47
100
AcDbScale
 70
     0
300
1/16" = 1'-0"
140
0.0625
141
12.0
290
     0
  0
SCALE
  5
5D
102
{ACAD_REACTORS
330
47
102
}
330
47
100
AcDbScale
 70
     0
300
3/32" = 1'-0"
140
0.09375
141
12.0
290
     0
  0
SCALE
  5
5E
102
{ACAD_REACTORS
330
47
102
}
330
47
100
AcDbScale
 70
     0
300
1/8" = 1'-0"
140
0.125
141
12.0
290
     0
  0
SCALE
  5
5F
102
{ACAD_REACTORS
330
47
102
}
330
47
100
AcDbScale
 70
     0
300
3/16" = 1'-0"
140
0.1875
141
12.0
290
     0
  0
SCALE
  5
60
102
{ACAD_REACTORS
330
47
102
}
330
47
100
AcDbScale
 70
     0
300
1/4" = 1'-0"
140
0.25
141
12.0
290
     0
  0
SCALE
  5
61
102
{ACAD_REACTORS
330
47
102
}
330
47
100
AcDbScale
 70
     0
300
3/8" = 1'-0"
140
0.375
141
12.0
290
     0
  0
SCALE
  5
62
102
{ACAD_REACTORS
330
47
102
}
330
47
100
AcDbScale
 70
     0
300
1/2" = 1'-0"
140
0.5
141
12.0
290
     0
  0
SCALE
  5
63
102
{ACAD_REACTORS
330
47
102
}
330
47
100
AcDbScale
 70
     0
300
3/4" = 1'-0"
140
0.75
141
12.0
290
     0
  0
SCALE
  5
64
102
{ACAD_REACTORS
330
47
102
}
330
47
100
AcDbScale
 70
     0
300
1" = 1'-0"
140
1.0
141
12.0
290
     0
  0
SCALE
  5
65
102
{ACAD_REACTORS
330
47
102
}
330
47
100
AcDbScale
 70
     0
300
1-1/2" = 1'-0"
140
1.5
141
12.0
290
     0
  0
SCALE
  5
66
102
{ACAD_REACTORS
330
47
102
}
330
47
100
AcDbScale
 70
     0
300
3" = 1'-0"
140
3.0
141
12.0
290
     0
  0
SCALE
  5
67
102
{ACAD_REACTORS
330
47
102
}
330
47
100
AcDbScale
 70
     0
300
6" = 1'-0"
140
6.0
141
12.0
290
     0
  0
SCALE
  5
68
102
{ACAD_REACTORS
330
47
102
}
330
47
100
AcDbScale
 70
     0
300
1'-0" = 1'-0"
140
12.0
141
12.0
290
     0
  0
ENDSEC
  0
EOF
