  0
SECTION
  2
HEADER
  9
$ACADVER
  1
AC1015
  9
$ACADMAINTVER
 70
     6
  9
$DWGCODEPAGE
  3
ANSI_1252
  9
$INSBASE
 10
0.0
 20
0.0
 30
0.0
  9
$EXTMIN
 10
0.0
 20
0.0
 30
0.0
  9
$EXTMAX
 10
279.4
 20
215.9
 30
0.0
  9
$LIMMIN
 10
0.0
 20
0.0
  9
$LIMMAX
 10
279.4
 20
215.9
  9
$ORTHOMODE
 70
     0
  9
$REGENMODE
 70
     1
  9
$FILLMODE
 70
     1
  9
$QTEXTMODE
 70
     0
  9
$MIRRTEXT
 70
     1
  9
$LTSCALE
 40
1.0
  9
$ATTMODE
 70
     1
  9
$TEXTSIZE
 40
3.5
  9
$TRACEWID
 40
1.0
  9
$TEXTSTYLE
  7
Standard
  9
$CLAYER
  8
0
  9
$CELTYPE
  6
ByLayer
  9
$CECOLOR
 62
   256
  9
$CELTSCALE
 40
1.0
  9
$DISPSILH
 70
     0
  9
$DIMSCALE
 40
1.0
  9
$DIMASZ
 40
3.302
  9
$DIMEXO
 40
1.0
  9
$DIMDLI
 40
3.75
  9
$DIMRND
 40
0.0
  9
$DIMDLE
 40
0.0
  9
$DIMEXE
 40
1.0
  9
$DIMTP
 40
0.0
  9
$DIMTM
 40
0.0
  9
$DIMTXT
 40
3.5
  9
$DIMCEN
 40
2.5
  9
$DIMTSZ
 40
0.0
  9
$DIMTOL
 70
     0
  9
$DIMLIM
 70
     0
  9
$DIMTIH
 70
     1
  9
$DIMTOH
 70
     1
  9
$DIMSE1
 70
     0
  9
$DIMSE2
 70
     0
  9
$DIMTAD
 70
     1
  9
$DIMZIN
 70
     0
  9
$DIMBLK
  1

  9
$DIMASO
 70
     1
  9
$DIMSHO
 70
     1
  9
$DIMPOST
  1

  9
$DIMAPOST
  1

  9
$DIMALT
 70
     0
  9
$DIMALTD
 70
     3
  9
$DIMALTF
 40
0.0393700787
  9
$DIMLFAC
 40
2.0
  9
$DIMTOFL
 70
     1
  9
$DIMTVP
 40
0.0
  9
$DIMTIX
 70
     0
  9
$DIMSOXD
 70
     0
  9
$DIMSAH
 70
     0
  9
$DIMBLK1
  1

  9
$DIMBLK2
  1

  9
$DIMSTYLE
  2
ISO-25
  9
$DIMCLRD
 70
     0
  9
$DIMCLRE
 70
     0
  9
$DIMCLRT
 70
     0
  9
$DIMTFAC
 40
1.0
  9
$DIMGAP
 40
1.524
  9
$DIMJUST
 70
     0
  9
$DIMSD1
 70
     0
  9
$DIMSD2
 70
     0
  9
$DIMTOLJ
 70
     0
  9
$DIMTZIN
 70
     0
  9
$DIMALTZ
 70
     0
  9
$DIMALTTZ
 70
     0
  9
$DIMUPT
 70
     0
  9
$DIMDEC
 70
     2
  9
$DIMTDEC
 70
     2
  9
$DIMALTU
 70
     2
  9
$DIMALTTD
 70
     3
  9
$DIMTXSTY
  7
Standard
  9
$DIMAUNIT
 70
     0
  9
$DIMADEC
 70
     2
  9
$DIMALTRND
 40
0.0
  9
$DIMAZIN
 70
     0
  9
$DIMDSEP
 70
    44
  9
$DIMATFIT
 70
     3
  9
$DIMFRAC
 70
     0
  9
$DIMLDRBLK
  1

  9
$DIMLUNIT
 70
     2
  9
$DIMLWD
 70
    -2
  9
$DIMLWE
 70
    -2
  9
$DIMTMOVE
 70
     0
  9
$LUNITS
 70
     2
  9
$LUPREC
 70
     2
  9
$SKETCHINC
 40
1.0
  9
$FILLETRAD
 40
10.0
  9
$AUNITS
 70
     0
  9
$AUPREC
 70
     2
  9
$MENU
  1
.
  9
$ELEVATION
 40
0.0
  9
$PELEVATION
 40
0.0
  9
$THICKNESS
 40
0.0
  9
$LIMCHECK
 70
     0
  9
$CHAMFERA
 40
0.0
  9
$CHAMFERB
 40
0.0
  9
$CHAMFERC
 40
0.0
  9
$CHAMFERD
 40
0.0
  9
$SKPOLY
 70
     0
  9
$TDCREATE
 40
2457892.43889368
  9
$TDUCREATE
 40
2457892.605560347
  9
$TDUPDATE
 40
2457892.438898519
  9
$TDUUPDATE
 40
2457892.605565185
  9
$TDINDWG
 40
0.0000000116
  9
$TDUSRTIMER
 40
0.0000000116
  9
$USRTIMER
 70
     1
  9
$ANGBASE
 50
0.0
  9
$ANGDIR
 70
     0
  9
$PDMODE
 70
     0
  9
$PDSIZE
 40
-1.0
  9
$PLINEWID
 40
0.0
  9
$SPLFRAME
 70
     0
  9
$SPLINETYPE
 70
     6
  9
$SPLINESEGS
 70
     8
  9
$HANDSEED
  5
28B
  9
$SURFTAB1
 70
     6
  9
$SURFTAB2
 70
     6
  9
$SURFTYPE
 70
     6
  9
$SURFU
 70
     6
  9
$SURFV
 70
     6
  9
$UCSBASE
  2

  9
$UCSNAME
  2

  9
$UCSORG
 10
0.0
 20
0.0
 30
0.0
  9
$UCSXDIR
 10
1.0
 20
0.0
 30
0.0
  9
$UCSYDIR
 10
0.0
 20
1.0
 30
0.0
  9
$UCSORTHOREF
  2

  9
$UCSORTHOVIEW
 70
     0
  9
$UCSORGTOP
 10
0.0
 20
0.0
 30
0.0
  9
$UCSORGBOTTOM
 10
0.0
 20
0.0
 30
0.0
  9
$UCSORGLEFT
 10
0.0
 20
0.0
 30
0.0
  9
$UCSORGRIGHT
 10
0.0
 20
0.0
 30
0.0
  9
$UCSORGFRONT
 10
0.0
 20
0.0
 30
0.0
  9
$UCSORGBACK
 10
0.0
 20
0.0
 30
0.0
  9
$PUCSBASE
  2

  9
$PUCSNAME
  2

  9
$PUCSORG
 10
0.0
 20
0.0
 30
0.0
  9
$PUCSXDIR
 10
1.0
 20
0.0
 30
0.0
  9
$PUCSYDIR
 10
0.0
 20
1.0
 30
0.0
  9
$PUCSORTHOREF
  2

  9
$PUCSORTHOVIEW
 70
     0
  9
$PUCSORGTOP
 10
0.0
 20
0.0
 30
0.0
  9
$PUCSORGBOTTOM
 10
0.0
 20
0.0
 30
0.0
  9
$PUCSORGLEFT
 10
0.0
 20
0.0
 30
0.0
  9
$PUCSORGRIGHT
 10
0.0
 20
0.0
 30
0.0
  9
$PUCSORGFRONT
 10
0.0
 20
0.0
 30
0.0
  9
$PUCSORGBACK
 10
0.0
 20
0.0
 30
0.0
  9
$USERI1
 70
     0
  9
$USERI2
 70
     0
  9
$USERI3
 70
     0
  9
$USERI4
 70
     0
  9
$USERI5
 70
     0
  9
$USERR1
 40
0.0
  9
$USERR2
 40
0.0
  9
$USERR3
 40
0.0
  9
$USERR4
 40
0.0
  9
$USERR5
 40
0.0
  9
$WORLDVIEW
 70
     1
  9
$SHADEDGE
 70
     3
  9
$SHADEDIF
 70
    70
  9
$TILEMODE
 70
     1
  9
$MAXACTVP
 70
    64
  9
$PINSBASE
 10
0.0
 20
0.0
 30
0.0
  9
$PLIMCHECK
 70
     0
  9
$PEXTMIN
 10
1.0000000000E+20
 20
1.0000000000E+20
 30
1.0000000000E+20
  9
$PEXTMAX
 10
-1.0000000000E+20
 20
-1.0000000000E+20
 30
-1.0000000000E+20
  9
$PLIMMIN
 10
0.0
 20
0.0
  9
$PLIMMAX
 10
420.0
 20
297.0
  9
$UNITMODE
 70
     0
  9
$VISRETAIN
 70
     1
  9
$PLINEGEN
 70
     0
  9
$PSLTSCALE
 70
     1
  9
$TREEDEPTH
 70
  3020
  9
$CMLSTYLE
  2
Standard
  9
$CMLJUST
 70
     0
  9
$CMLSCALE
 40
20.0
  9
$PROXYGRAPHICS
 70
     1
  9
$MEASUREMENT
 70
     1
  9
$CELWEIGHT
370
    -1
  9
$ENDCAPS
280
     0
  9
$JOINSTYLE
280
     0
  9
$LWDISPLAY
290
     1
  9
$INSUNITS
 70
     4
  9
$HYPERLINKBASE
  1

  9
$STYLESHEET
  1

  9
$XEDIT
290
     1
  9
$CEPSNTYPE
380
     0
  9
$PSTYLEMODE
290
     1
  9
$FINGERPRINTGUID
  2
{B8856B7A-EE89-4EAE-AC0B-3C5602F7CB33}
  9
$VERSIONGUID
  2
{FAEB1C32-E019-11D5-929B-00C0DF256EC4}
  9
$EXTNAMES
290
     1
  9
$PSVPSCALE
 40
0.0
  9
$OLESTARTUP
290
     0
  0
ENDSEC
  0
SECTION
  2
CLASSES
  0
CLASS
  1
ACDBDICTIONARYWDFLT
  2
AcDbDictionaryWithDefault
  3
ObjectDBX Classes
 90
        0
280
     0
281
     0
  0
CLASS
  1
VISUALSTYLE
  2
AcDbVisualStyle
  3
ObjectDBX Classes
 90
     4095
280
     0
281
     0
  0
CLASS
  1
MATERIAL
  2
AcDbMaterial
  3
ObjectDBX Classes
 90
     1153
280
     0
281
     0
  0
CLASS
  1
SCALE
  2
AcDbScale
  3
ObjectDBX Classes
 90
     1153
280
     0
281
     0
  0
CLASS
  1
TABLESTYLE
  2
AcDbTableStyle
  3
ObjectDBX Classes
 90
     4095
280
     0
281
     0
  0
CLASS
  1
MLEADERSTYLE
  2
AcDbMLeaderStyle
  3
ACDB_MLEADERSTYLE_CLASS
 90
     4095
280
     0
281
     0
  0
CLASS
  1
SUN
  2
AcDbSun
  3
SCENEOE
 90
     1153
280
     0
281
     0
  0
CLASS
  1
ACDBPLACEHOLDER
  2
AcDbPlaceHolder
  3
ObjectDBX Classes
 90
        0
280
     0
281
     0
  0
CLASS
  1
LAYOUT
  2
AcDbLayout
  3
ObjectDBX Classes
 90
        0
280
     0
281
     0
  0
ENDSEC
  0
SECTION
  2
TABLES
  0
TABLE
  2
VPORT
  5
8
330
0
100
AcDbSymbolTable
 70
     1
  0
VPORT
  5
29
330
8
100
AcDbSymbolTableRecord
100
AcDbViewportTableRecord
  2
*Active
 70
     0
 10
0.0
 20
0.0
 11
1.0
 21
1.0
 12
139.7
 22
107.95
 13
0.0
 23
0.0
 14
10.0
 24
10.0
 15
10.0
 25
10.0
 16
0.0
 26
0.0
 36
1.0
 17
0.0
 27
0.0
 37
0.0
 40
215.9
 41
1.2941176471
 42
50.0
 43
0.0
 44
0.0
 50
0.0
 51
0.0
 71
     0
 72
  2000
 73
     1
 74
     3
 75
     0
 76
     0
 77
     0
 78
     0
281
     0
 65
     1
110
0.0
120
0.0
130
0.0
111
1.0
121
0.0
131
0.0
112
0.0
122
1.0
132
0.0
 79
     0
146
0.0
  0
ENDTAB
  0
TABLE
  2
LTYPE
  5
5
330
0
100
AcDbSymbolTable
 70
     6
  0
LTYPE
  5
14
330
5
100
AcDbSymbolTableRecord
100
AcDbLinetypeTableRecord
  2
ByBlock
 70
     0
  3

 72
    65
 73
     0
 40
0.0
  0
LTYPE
  5
15
330
5
100
AcDbSymbolTableRecord
100
AcDbLinetypeTableRecord
  2
ByLayer
 70
     0
  3

 72
    65
 73
     0
 40
0.0
  0
LTYPE
  5
16
330
5
100
AcDbSymbolTableRecord
100
AcDbLinetypeTableRecord
  2
Continuous
 70
     0
  3
Solid line
 72
    65
 73
     0
 40
0.0
  0
LTYPE
  5
6E
330
5
100
AcDbSymbolTableRecord
100
AcDbLinetypeTableRecord
  2
HIDDEN
 70
     0
  3
Hidden __ __ __ __ __ __ __ __ __ __ __ __ __ __
 72
    65
 73
     2
 40
1.905
 49
1.27
 74
     0
 49
-0.635
 74
     0
  0
LTYPE
  5
6F
330
5
100
AcDbSymbolTableRecord
100
AcDbLinetypeTableRecord
  2
PHANTOM
 70
     0
  3
Phantom ______  __  __  ______  __  __  ______
 72
    65
 73
     6
 40
12.7
 49
6.35
 74
     0
 49
-1.27
 74
     0
 49
1.27
 74
     0
 49
-1.27
 74
     0
 49
1.27
 74
     0
 49
-1.27
 74
     0
  0
LTYPE
  5
70
330
5
100
AcDbSymbolTableRecord
100
AcDbLinetypeTableRecord
  2
CENTER
 70
     0
  3
Center ____ _ ____ _ ____ _ ____ _ ____ _ ____
 72
    65
 73
     4
 40
10.16
 49
6.35
 74
     0
 49
-1.27
 74
     0
 49
1.27
 74
     0
 49
-1.27
 74
     0
  0
LTYPE
  5
71
330
5
100
AcDbSymbolTableRecord
100
AcDbLinetypeTableRecord
  2
CENTERX2
 70
     0
  3
Center (2x) ________  __  ________  __  _____
 72
    65
 73
     4
 40
20.32
 49
12.7
 74
     0
 49
-2.54
 74
     0
 49
2.54
 74
     0
 49
-2.54
 74
     0
  0
LTYPE
  5
72
330
5
100
AcDbSymbolTableRecord
100
AcDbLinetypeTableRecord
  2
DOT2
 70
     0
  3
Dot (.5x) ........................................
 72
    65
 73
     2
 40
0.635
 49
0.0
 74
     0
 49
-0.635
 74
     0
  0
ENDTAB
  0
TABLE
  2
LAYER
  5
2
330
0
100
AcDbSymbolTable
 70
     1
  0
LAYER
  5
10
330
2
100
AcDbSymbolTableRecord
100
AcDbLayerTableRecord
  2
0
 70
     0
 62
     7
  6
Continuous
370
    -3
390
F
  0
ENDTAB
  0
TABLE
  2
STYLE
  5
3
330
0
100
AcDbSymbolTable
 70
     3
  0
STYLE
  5
11
330
3
100
AcDbSymbolTableRecord
100
AcDbTextStyleTableRecord
  2
Standard
 70
     0
 40
0.0
 41
1.0
 50
0.0
 71
     0
 42
3.5
  3
txt
  4

  0
STYLE
  5
73
330
3
100
AcDbSymbolTableRecord
100
AcDbTextStyleTableRecord
  2
SLDTEXTSTYLE0
 70
     0
 40
0.0
 41
0.75
 50
0.0
 71
     0
 42
3.5
  3
TXT
  4

  0
STYLE
  5
75
330
3
100
AcDbSymbolTableRecord
100
AcDbTextStyleTableRecord
  2
SLDTEXTSTYLE1
 70
     0
 40
0.0
 41
0.6333333333
 50
0.0
 71
     0
 42
3.5
  3
TXT
  4

  0
ENDTAB
  0
TABLE
  2
VIEW
  5
6
330
0
100
AcDbSymbolTable
 70
     0
  0
ENDTAB
  0
TABLE
  2
UCS
  5
7
330
0
100
AcDbSymbolTable
 70
     0
  0
ENDTAB
  0
TABLE
  2
APPID
  5
9
330
0
100
AcDbSymbolTable
 70
     1
  0
APPID
  5
12
330
9
100
AcDbSymbolTableRecord
100
AcDbRegAppTableRecord
  2
ACAD
 70
     0
  0
ENDTAB
  0
TABLE
  2
DIMSTYLE
  5
A
330
0
100
AcDbSymbolTable
 70
     1
100
AcDbDimStyleTable
  0
DIMSTYLE
105
27
330
A
100
AcDbSymbolTableRecord
100
AcDbDimStyleTableRecord
  2
ISO-25
 70
     0
 41
2.5
 42
0.625
 43
3.75
 44
1.25
 73
     0
 74
     0
 77
     1
 78
     8
140
2.5
141
2.5
143
0.0393700787
147
0.625
171
     3
172
     1
178
     0
271
     2
272
     2
274
     3
278
    44
283
     0
284
     8
340
11
  0
ENDTAB
  0
TABLE
  2
BLOCK_RECORD
  5
1
330
0
100
AcDbSymbolTable
 70
     2
  0
BLOCK_RECORD
  5
1F
330
1
100
AcDbSymbolTableRecord
100
AcDbBlockTableRecord
  2
*Model_Space
340
22
  0
BLOCK_RECORD
  5
1B
330
1
100
AcDbSymbolTableRecord
100
AcDbBlockTableRecord
  2
*Paper_Space
340
1E
  0
BLOCK_RECORD
  5
23
330
1
100
AcDbSymbolTableRecord
100
AcDbBlockTableRecord
  2
*Paper_Space0
340
26
  0
BLOCK_RECORD
  5
27F
330
1
100
AcDbSymbolTableRecord
100
AcDbBlockTableRecord
  2
SW_CENTERMARKSYMBOL_0
340
0
102
{BLKREFS
331
28A
102
}
  0
ENDTAB
  0
ENDSEC
  0
SECTION
  2
BLOCKS
  0
BLOCK
  5
20
330
1F
100
AcDbEntity
  8
0
100
AcDbBlockBegin
  2
*Model_Space
 70
     0
 10
0.0
 20
0.0
 30
0.0
  3
*Model_Space
  1

  0
ENDBLK
  5
21
330
1F
100
AcDbEntity
  8
0
100
AcDbBlockEnd
  0
BLOCK
  5
1C
330
1B
100
AcDbEntity
 67
     1
  8
0
100
AcDbBlockBegin
  2
*Paper_Space
 70
     0
 10
0.0
 20
0.0
 30
0.0
  3
*Paper_Space
  1

  0
ENDBLK
  5
1D
330
1B
100
AcDbEntity
 67
     1
  8
0
100
AcDbBlockEnd
  0
BLOCK
  5
24
330
23
100
AcDbEntity
  8
0
100
AcDbBlockBegin
  2
*Paper_Space0
 70
     0
 10
0.0
 20
0.0
 30
0.0
  3
*Paper_Space0
  1

  0
ENDBLK
  5
25
330
23
100
AcDbEntity
  8
0
100
AcDbBlockEnd
  0
BLOCK
  5
280
330
27F
100
AcDbEntity
  8
0
100
AcDbBlockBegin
  2
SW_CENTERMARKSYMBOL_0
 70
     0
 10
0.0
 20
0.0
 30
0.0
  3
SW_CENTERMARKSYMBOL_0
  1

  0
LINE
  5
282
330
27F
100
AcDbEntity
  8
0
  6
Continuous
 62
     0
370
     0
100
AcDbLine
 10
0.0
 20
0.0
 30
0.0
 11
0.0
 21
2.5
 31
0.0
  0
LINE
  5
283
330
27F
100
AcDbEntity
  8
0
  6
Continuous
 62
     0
370
     0
100
AcDbLine
 10
0.0
 20
0.0
 30
0.0
 11
-2.5
 21
0.0
 31
0.0
  0
LINE
  5
284
330
27F
100
AcDbEntity
  8
0
  6
Continuous
 62
     0
370
     0
100
AcDbLine
 10
0.0
 20
0.0
 30
0.0
 11
0.0
 21
-2.5
 31
0.0
  0
LINE
  5
285
330
27F
100
AcDbEntity
  8
0
  6
Continuous
 62
     0
370
     0
100
AcDbLine
 10
0.0
 20
0.0
 30
0.0
 11
2.5
 21
0.0
 31
0.0
  0
LINE
  5
286
330
27F
100
AcDbEntity
  8
0
  6
Continuous
 62
     0
370
     0
100
AcDbLine
 10
0.0
 20
5.0
 30
0.0
 11
0.0
 21
7.25
 31
0.0
  0
LINE
  5
287
330
27F
100
AcDbEntity
  8
0
  6
Continuous
 62
     0
370
     0
100
AcDbLine
 10
-5.0
 20
0.0
 30
0.0
 11
-7.25
 21
0.0
 31
0.0
  0
LINE
  5
288
330
27F
100
AcDbEntity
  8
0
  6
Continuous
 62
     0
370
     0
100
AcDbLine
 10
0.0
 20
-5.0
 30
0.0
 11
0.0
 21
-7.25
 31
0.0
  0
LINE
  5
289
330
27F
100
AcDbEntity
  8
0
  6
Continuous
 62
     0
370
     0
100
AcDbLine
 10
5.0
 20
0.0
 30
0.0
 11
7.25
 21
0.0
 31
0.0
  0
ENDBLK
  5
281
330
27F
100
AcDbEntity
  8
0
100
AcDbBlockEnd
  0
ENDSEC
  0
SECTION
  2
ENTITIES
  0
MTEXT
  5
74
330
1F
100
AcDbEntity
  8
0
  6
Continuous
 62
     7
370
     0
100
AcDbMText
 10
6.464347436
 20
142.023350245
 30
0.0
 40
6.8791666667
 41
0.0
 71
     1
 72
     1
  1
U2 Universal Screw  #8
  7
SLDTEXTSTYLE0
 73
     1
 44
1.0
  0
MTEXT
  5
76
330
1F
100
AcDbEntity
  8
0
  6
Continuous
 62
     7
370
     0
100
AcDbMText
 10
33.9948552173
 20
53.9874204078
 30
0.0
 40
3.5
 41
0.0
 71
     1
 72
     1
  1
1-1/2"       2"
  7
SLDTEXTSTYLE1
 73
     1
 44
1.0
  0
MTEXT
  5
77
330
1F
100
AcDbEntity
  8
0
  6
Continuous
 62
     7
370
     0
100
AcDbMText
 10
35.8268185913
 20
47.3138395455
 30
0.0
 40
3.5
 41
0.0
 71
     1
 72
     1
  1
© U2Fasteners
  7
SLDTEXTSTYLE0
 73
     1
 44
1.0
  0
ARC
  5
78
330
1F
100
AcDbEntity
  8
0
  6
Continuous
 62
     7
370
    15
100
AcDbCircle
 10
57.8624362806
 20
109.7906419698
 30
0.0
 40
0.4000000000000015
100
AcDbArc
 50
162.4161382947
 51
230.0
  0
ARC
  5
79
330
1F
100
AcDbEntity
  8
0
  6
Continuous
 62
     7
370
    15
100
AcDbCircle
 10
64.7250569185
 20
109.7906419698
 30
0.0
 40
0.4000000000000009
100
AcDbArc
 50
310.0
 51
17.5838617053
  0
ARC
  5
7A
330
1F
100
AcDbEntity
  8
0
  6
Continuous
 62
     7
370
    15
100
AcDbCircle
 10
58.2437465995
 20
109.669801411
 30
0.0
 40
0.8000000000000114
100
AcDbArc
 50
90.0
 51
162.4161382947
  0
ARC
  5
7B
330
1F
100
AcDbEntity
  8
0
  6
Continuous
 62
     7
370
    15
100
AcDbCircle
 10
64.3437465995
 20
109.669801411
 30
0.0
 40
0.8000000000000114
100
AcDbArc
 50
17.5838617053
 51
90.0
  0
LINE
  5
7C
330
1F
100
AcDbEntity
  8
0
  6
Continuous
 62
     7
370
    15
100
AcDbLine
 10
63.3728008471
 20
108.1338014617
 30
0.0
 11
64.9821718909
 21
109.4842229202
 31
0.0
  0
SPLINE
  5
7D
330
1F
100
AcDbEntity
  8
0
  6
Continuous
 62
     7
370
    15
100
AcDbSpline
210
0.0
220
0.0
230
1.0
 70
     8
 71
     3
 72
     9
 73
     5
 74
     0
 42
0.000000001
 43
0.00000001
 40
0.0
 40
0.0
 40
0.0
 40
0.0
 40
0.729898735876737
 40
1.0
 40
1.0
 40
1.0
 40
1.0
 10
63.4251830853242
 20
91.56367668652166
 30
0.0
 10
63.23337601240846
 20
91.64701451829544
 30
0.0
 10
62.97059014433136
 20
91.76119177012157
 30
0.0
 10
62.71325356887947
 20
91.88058205332713
 30
0.0
 10
62.64374663454476
 20
91.912829519745
 30
0.0
  0
SPLINE
  5
7E
330
1F
100
AcDbEntity
  8
0
  6
Continuous
 62
     7
370
    15
100
AcDbSpline
210
0.0
220
0.0
230
1.0
 70
     8
 71
     3
 72
     9
 73
     5
 74
     0
 42
0.000000001
 43
0.00000001
 40
0.0
 40
0.0
 40
0.0
 40
0.0
 40
0.6535744424143646
 40
1.0
 40
1.0
 40
1.0
 40
1.0
 10
63.42998032790604
 20
89.37816994034877
 30
0.0
 10
63.25680464261647
 20
89.45470821098179
 30
0.0
 10
62.99183760282551
 20
89.5718154074479
 30
0.0
 10
62.73330792302284
 20
89.69495098795154
 30
0.0
 10
62.64374663454476
 20
89.73760830008615
 30
0.0
  0
SPLINE
  5
7F
330
1F
100
AcDbEntity
  8
0
  6
Continuous
 62
     7
370
    15
100
AcDbSpline
210
0.0
220
0.0
230
1.0
 70
     8
 71
     3
 72
    12
 73
     8
 74
     0
 42
0.000000001
 43
0.00000001
 40
0.0
 40
0.0
 40
0.0
 40
0.0
 40
0.3007606149959854
 40
0.5124830681830054
 40
0.6415934263436114
 40
0.8880609601905533
 40
0.9999999999999999
 40
0.9999999999999999
 40
0.9999999999999999
 40
0.9999999999999999
 10
63.43116008077744
 20
87.17806005620588
 30
0.0
 10
63.35161681644387
 20
87.21329790146359
 30
0.0
 10
63.21607853740588
 20
87.27334166435477
 30
0.0
 10
63.04699329925201
 20
87.34947697101018
 30
0.0
 10
62.89404929477526
 20
87.41921252046924
 30
0.0
 10
62.76553441056201
 20
87.47794884308085
 30
0.0
 10
62.67273129245928
 20
87.5224446094791
 30
0.0
 10
62.64374663454476
 20
87.5363417133056
 30
0.0
  0
SPLINE
  5
80
330
1F
100
AcDbEntity
  8
0
  6
Continuous
 62
     7
370
    15
100
AcDbSpline
210
0.0
220
0.0
230
1.0
 70
     8
 71
     3
 72
    10
 73
     6
 74
     0
 42
0.000000001
 43
0.00000001
 40
0.0
 40
0.0
 40
0.0
 40
0.0
 40
0.4055881229859729
 40
0.7472657043675843
 40
1.0
 40
1.0
 40
1.0
 40
1.0
 10
63.42993632291439
 20
84.97821280502905
 30
0.0
 10
63.32410848239508
 20
85.02502122978082
 30
0.0
 10
63.12912862153242
 20
85.11126224254758
 30
0.0
 10
62.860327149034
 20
85.23286257272495
 30
0.0
 10
62.70836042322087
 20
85.30484674162379
 30
0.0
 10
62.64374663454476
 20
85.33545324349035
 30
0.0
  0
SPLINE
  5
81
330
1F
100
AcDbEntity
  8
0
  6
Continuous
 62
     7
370
    15
100
AcDbSpline
210
0.0
220
0.0
230
1.0
 70
     8
 71
     3
 72
     9
 73
     5
 74
     0
 42
0.000000001
 43
0.00000001
 40
0.0
 40
0.0
 40
0.0
 40
0.0
 40
0.6419691329189371
 40
1.0
 40
1.0
 40
1.0
 40
1.0
 10
63.44798023213628
 20
82.77040647112955
 30
0.0
 10
63.27413606072571
 20
82.84715706268814
 30
0.0
 10
63.00333772713587
 20
82.96671201887365
 30
0.0
 10
62.73854912673829
 20
83.0925244768735
 30
0.0
 10
62.64374663454476
 20
83.1375692203008
 30
0.0
  0
SPLINE
  5
82
330
1F
100
AcDbEntity
  8
0
  6
Continuous
 62
     7
370
    15
100
AcDbSpline
210
0.0
220
0.0
230
1.0
 70
     8
 71
     3
 72
     9
 73
     5
 74
     0
 42
0.000000001
 43
0.00000001
 40
0.0
 40
0.0
 40
0.0
 40
0.0
 40
0.6452316984548188
 40
1.0
 40
1.0
 40
1.0
 40
1.0
 10
63.44425238070074
 20
80.57174572491277
 30
0.0
 10
63.27031695880933
 20
80.6486447717686
 30
0.0
 10
63.00074647380691
 20
80.76782528791493
 30
0.0
 10
62.73723289819773
 20
80.89323998567995
 30
0.0
 10
62.64374663454476
 20
80.93773314499487
 30
0.0
  0
SPLINE
  5
83
330
1F
100
AcDbEntity
  8
0
  6
Continuous
 62
     7
370
    15
100
AcDbSpline
210
0.0
220
0.0
230
1.0
 70
     8
 71
     3
 72
     9
 73
     5
 74
     0
 42
0.000000001
 43
0.00000001
 40
0.0
 40
0.0
 40
0.0
 40
0.0
 40
0.6451928743072438
 40
0.9999999999999999
 40
0.9999999999999999
 40
0.9999999999999999
 40
0.9999999999999999
 10
63.44361791719678
 20
78.37238276147474
 30
0.0
 10
63.26970792489409
 20
78.44910056161827
 30
0.0
 10
63.0001606325601
 20
78.56800733073888
 30
0.0
 10
62.73708702506553
 20
78.69313971690755
 30
0.0
 10
62.64374663454476
 20
78.73753757917513
 30
0.0
  0
SPLINE
  5
84
330
1F
100
AcDbEntity
  8
0
  6
Continuous
 62
     7
370
    15
100
AcDbSpline
210
0.0
220
0.0
230
1.0
 70
     8
 71
     3
 72
     9
 73
     5
 74
     0
 42
0.000000001
 43
0.00000001
 40
0.0
 40
0.0
 40
0.0
 40
0.0
 40
0.717773734195543
 40
1.0
 40
1.0
 40
1.0
 40
1.0
 10
63.43473309983495
 20
76.17614345395197
 30
0.0
 10
63.2433063964093
 20
76.26077161264428
 30
0.0
 10
62.9766113443255
 20
76.37867528431757
 30
0.0
 10
62.71701230267594
 20
76.50244604422794
 30
0.0
 10
62.64374663454476
 20
76.53737740361322
 30
0.0
  0
SPLINE
  5
85
330
1F
100
AcDbEntity
  8
0
  6
Continuous
 62
     7
370
    15
100
AcDbSpline
210
0.0
220
0.0
230
1.0
 70
     8
 71
     3
 72
     9
 73
     5
 74
     0
 42
0.000000001
 43
0.00000001
 40
0.0
 40
0.0
 40
0.0
 40
0.0
 40
0.7147150516560336
 40
1.0
 40
1.0
 40
1.0
 40
1.0
 10
63.43255264085713
 20
73.97731134438146
 30
0.0
 10
63.24253528738993
 20
74.0611603681331
 30
0.0
 10
62.97667079632188
 20
74.17847848471308
 30
0.0
 10
62.7176432847914
 20
74.30194696336754
 30
0.0
 10
62.64374663454476
 20
74.33717066192258
 30
0.0
  0
SPLINE
  5
86
330
1F
100
AcDbEntity
  8
0
  6
Continuous
 62
     7
370
    15
100
AcDbSpline
210
0.0
220
0.0
230
1.0
 70
     8
 71
     3
 72
     9
 73
     5
 74
     0
 42
0.000000001
 43
0.00000001
 40
0.0
 40
0.0
 40
0.0
 40
0.0
 40
0.4925836812859444
 40
1.0
 40
1.0
 40
1.0
 40
1.0
 10
60.15789615788493
 20
75.53865408295025
 30
0.0
 10
59.99600480325278
 20
75.46131831856162
 30
0.0
 10
59.66734723544722
 20
75.3043180619012
 30
0.0
 10
59.32815803578058
 20
75.15415358324775
 30
0.0
 10
59.15604790073815
 20
75.07795767628778
 30
0.0
  0
SPLINE
  5
87
330
1F
100
AcDbEntity
  8
0
  6
Continuous
 62
     7
370
    15
100
AcDbSpline
210
0.0
220
0.0
230
1.0
 70
     8
 71
     3
 72
     9
 73
     5
 74
     0
 42
0.000000001
 43
0.00000001
 40
0.0
 40
0.0
 40
0.0
 40
0.0
 40
0.4363786560380164
 40
1.0
 40
1.0
 40
1.0
 40
1.0
 10
60.15675307583991
 20
77.73806640648473
 30
0.0
 10
60.01317811953052
 20
77.66930119980351
 30
0.0
 10
59.68416350269995
 20
77.51171969179497
 30
0.0
 10
59.34622175693507
 20
77.36186667827792
 30
0.0
 10
59.15575057600621
 20
77.27740632140268
 30
0.0
  0
SPLINE
  5
88
330
1F
100
AcDbEntity
  8
0
  6
Continuous
 62
     7
370
    15
100
AcDbSpline
210
0.0
220
0.0
230
1.0
 70
     8
 71
     3
 72
     9
 73
     5
 74
     0
 42
0.000000001
 43
0.00000001
 40
0.0
 40
0.0
 40
0.0
 40
0.0
 40
0.4925844952624647
 40
1.0
 40
1.0
 40
1.0
 40
1.0
 10
60.15559276432726
 20
79.93756161772838
 30
0.0
 10
59.99345973867072
 20
79.86017391805184
 30
0.0
 10
59.66431209554373
 20
79.70306848655565
 30
0.0
 10
59.32509720056262
 20
79.55279994381777
 30
0.0
 10
59.15297430341128
 20
79.47655135535825
 30
0.0
  0
SPLINE
  5
89
330
1F
100
AcDbEntity
  8
0
  6
Continuous
 62
     7
370
    15
100
AcDbSpline
210
0.0
220
0.0
230
1.0
 70
     8
 71
     3
 72
     9
 73
     5
 74
     0
 42
0.000000001
 43
0.00000001
 40
0.0
 40
0.0
 40
0.0
 40
0.0
 40
0.4924455171947638
 40
1.0
 40
1.0
 40
1.0
 40
1.0
 10
60.15718194988552
 20
82.13824705922237
 30
0.0
 10
59.99559229937196
 20
82.06096000797807
 30
0.0
 10
59.66745518598314
 20
81.90401462306613
 30
0.0
 10
59.32872107220221
 20
81.75402438894186
 30
0.0
 10
59.15679505427364
 20
81.67789617323507
 30
0.0
  0
SPLINE
  5
8A
330
1F
100
AcDbEntity
  8
0
  6
Continuous
 62
     7
370
    15
100
AcDbSpline
210
0.0
220
0.0
230
1.0
 70
     8
 71
     3
 72
     9
 73
     5
 74
     0
 42
0.000000001
 43
0.00000001
 40
0.0
 40
0.0
 40
0.0
 40
0.0
 40
0.5620646830309103
 40
1.0
 40
1.0
 40
1.0
 40
1.0
 10
60.15370706894431
 20
84.33666938686002
 30
0.0
 10
59.96940884086074
 20
84.24900734524991
 30
0.0
 10
59.64151378954786
 20
84.09304301541975
 30
0.0
 10
59.3055807108129
 20
83.94415153211388
 30
0.0
 10
59.1584637514967
 20
83.8789466931783
 30
0.0
  0
SPLINE
  5
8B
330
1F
100
AcDbEntity
  8
0
  6
Continuous
 62
     7
370
    15
100
AcDbSpline
210
0.0
220
0.0
230
1.0
 70
     8
 71
     3
 72
     9
 73
     5
 74
     0
 42
0.000000001
 43
0.00000001
 40
0.0
 40
0.0
 40
0.0
 40
0.0
 40
0.4380999114943381
 40
1.0
 40
1.0
 40
1.0
 40
1.0
 10
60.15510253940705
 20
86.53720022880663
 30
0.0
 10
60.01110853268884
 20
86.46828334501703
 30
0.0
 10
59.6824300670232
 20
86.31097474489765
 30
0.0
 10
59.34539357692614
 20
86.16155037795409
 30
0.0
 10
59.15601274331096
 20
86.07758881294359
 30
0.0
  0
SPLINE
  5
8C
330
1F
100
AcDbEntity
  8
0
  6
Continuous
 62
     7
370
    15
100
AcDbSpline
210
0.0
220
0.0
230
1.0
 70
     8
 71
     3
 72
    12
 73
     8
 74
     0
 42
0.000000001
 43
0.00000001
 40
0.0
 40
0.0
 40
0.0
 40
0.0
 40
0.2996794507850541
 40
0.4951078409388384
 40
0.5983746989554692
 40
0.7651502997274372
 40
1.0
 40
1.0
 40
1.0
 40
1.0
 10
60.15497401689175
 20
88.7373175635301
 30
0.0
 10
60.05684209125891
 20
88.69006860240145
 30
0.0
 10
59.8947159070979
 20
88.61200742379972
 30
0.0
 10
59.6950843397916
 20
88.52005968494299
 30
0.0
 10
59.54025311302541
 20
88.44949359958865
 30
0.0
 10
59.37167913258133
 20
88.37348246582087
 30
0.0
 10
59.23687520868027
 20
88.31368086103427
 30
0.0
 10
59.15804884728971
 20
88.27871197604765
 30
0.0
  0
SPLINE
  5
8D
330
1F
100
AcDbEntity
  8
0
  6
Continuous
 62
     7
370
    15
100
AcDbSpline
210
0.0
220
0.0
230
1.0
 70
     8
 71
     3
 72
     9
 73
     5
 74
     0
 42
0.000000001
 43
0.00000001
 40
0.0
 40
0.0
 40
0.0
 40
0.0
 40
0.4366480091500234
 40
1.0
 40
1.0
 40
1.0
 40
1.0
 10
60.15693200618956
 20
90.9380793734752
 30
0.0
 10
60.01312021232386
 20
90.86922398815831
 30
0.0
 10
59.68376615401577
 20
90.7115331619687
 30
0.0
 10
59.34562985262544
 20
90.56167113413002
 30
0.0
 10
59.15514009405855
 20
90.47724606239427
 30
0.0
  0
LINE
  5
8E
330
1F
100
AcDbEntity
  8
0
  6
Continuous
 62
     7
370
    15
100
AcDbLine
 10
60.1074591033
 20
92.9279562249
 30
0.0
 11
59.5744732056
 21
92.6842030301
 31
0.0
  0
LINE
  5
8F
330
1F
100
AcDbEntity
  8
0
  6
Continuous
 62
     7
370
    15
100
AcDbLine
 10
62.47343812
 20
93.3812197461
 30
0.0
 11
62.6474459642
 21
93.4675831511
 31
0.0
  0
SPLINE
  5
90
330
1F
100
AcDbEntity
  8
0
  6
Continuous
 62
     7
370
    15
100
AcDbSpline
210
0.0
220
0.0
230
1.0
 70
     8
 71
     3
 72
     9
 73
     5
 74
     0
 42
0.000000001
 43
0.00000001
 40
0.0
 40
0.0
 40
0.0
 40
0.0
 40
0.4924278435734838
 40
1.0
 40
1.0
 40
1.0
 40
1.0
 10
62.43172942061904
 20
90.86968304359544
 30
0.0
 10
62.59388084318404
 20
90.94709410574697
 30
0.0
 10
62.92317055472488
 20
91.10429695924476
 30
0.0
 10
63.26256028876396
 20
91.25451548352962
 30
0.0
 10
63.43482506793919
 20
91.33076222383608
 30
0.0
  0
SPLINE
  5
91
330
1F
100
AcDbEntity
  8
0
  6
Continuous
 62
     7
370
    15
100
AcDbSpline
210
0.0
220
0.0
230
1.0
 70
     8
 71
     3
 72
     9
 73
     5
 74
     0
 42
0.000000001
 43
0.00000001
 40
0.0
 40
0.0
 40
0.0
 40
0.0
 40
0.4924243899905165
 40
1.0
 40
1.0
 40
1.0
 40
1.0
 10
62.43014011864546
 20
88.66881692552198
 30
0.0
 10
62.59190271213239
 20
88.7461919615443
 30
0.0
 10
62.92040511123176
 20
88.90332275684024
 30
0.0
 10
63.25930920037955
 20
89.05346931040755
 30
0.0
 10
63.43132865016344
 20
89.1296800389253
 30
0.0
  0
SPLINE
  5
92
330
1F
100
AcDbEntity
  8
0
  6
Continuous
 62
     7
370
    15
100
AcDbSpline
210
0.0
220
0.0
230
1.0
 70
     8
 71
     3
 72
     9
 73
     5
 74
     0
 42
0.000000001
 43
0.00000001
 40
0.0
 40
0.0
 40
0.0
 40
0.0
 40
0.56082412144017
 40
1.0
 40
1.0
 40
1.0
 40
1.0
 10
62.43275038299146
 20
86.47015431666006
 30
0.0
 10
62.61727179710005
 20
86.55793289456113
 30
0.0
 10
62.94629012397718
 20
86.7144500173904
 30
0.0
 10
63.28342225248898
 20
86.86372264483586
 30
0.0
 10
63.4314825512189
 20
86.92927958213915
 30
0.0
  0
SPLINE
  5
93
330
1F
100
AcDbEntity
  8
0
  6
Continuous
 62
     7
370
    15
100
AcDbSpline
210
0.0
220
0.0
230
1.0
 70
     8
 71
     3
 72
     9
 73
     5
 74
     0
 42
0.000000001
 43
0.00000001
 40
0.0
 40
0.0
 40
0.0
 40
0.0
 40
0.5616621226867904
 40
1.0
 40
1.0
 40
1.0
 40
1.0
 10
62.43171358813527
 20
84.2696216120683
 30
0.0
 10
62.61622568240222
 20
84.3575450709164
 30
0.0
 10
62.94473651981512
 20
84.51408662018002
 30
0.0
 10
63.2812528897265
 20
84.66318476126241
 30
0.0
 10
63.42876076099459
 20
84.72854012393583
 30
0.0
  0
SPLINE
  5
94
330
1F
100
AcDbEntity
  8
0
  6
Continuous
 62
     7
370
    15
100
AcDbSpline
210
0.0
220
0.0
230
1.0
 70
     8
 71
     3
 72
    11
 73
     7
 74
     0
 42
0.000000001
 43
0.00000001
 40
0.0
 40
0.0
 40
0.0
 40
0.0
 40
0.1884060330115453
 40
0.4118979431900525
 40
0.6788756183721754
 40
1.0
 40
1.0
 40
1.0
 40
1.0
 10
62.4333884553704
 20
82.0704374625646
 30
0.0
 10
62.49099282364655
 20
82.09854293833833
 30
0.0
 10
62.61692892257314
 20
82.15998782669209
 30
0.0
 10
62.84513616267107
 20
82.26747994416101
 30
0.0
 10
63.12596048587288
 20
82.39447580114728
 30
0.0
 10
63.32372126869461
 20
82.48174614301419
 30
0.0
 10
63.43170560297552
 20
82.52939881527055
 30
0.0
  0
SPLINE
  5
95
330
1F
100
AcDbEntity
  8
0
  6
Continuous
 62
     7
370
    15
100
AcDbSpline
210
0.0
220
0.0
230
1.0
 70
     8
 71
     3
 72
    12
 73
     8
 74
     0
 42
0.000000001
 43
0.00000001
 40
0.0
 40
0.0
 40
0.0
 40
0.0
 40
0.2991349885727291
 40
0.4926878748475575
 40
0.5947875661334691
 40
0.7621665756111276
 40
1.0
 40
1.0
 40
1.0
 40
1.0
 10
62.43306936097327
 20
79.87032199048627
 30
0.0
 10
62.53114031923829
 20
79.91760368556913
 30
0.0
 10
62.69266730156288
 20
79.99547862083065
 30
0.0
 10
62.89115200312639
 20
80.08695702675148
 30
0.0
 10
63.04470129899465
 20
80.15698419541884
 30
0.0
 10
63.21463317713796
 20
80.2336034558408
 30
0.0
 10
63.35076807813936
 20
80.29394500028981
 30
0.0
 10
63.43067043793383
 20
80.3293615742885
 30
0.0
  0
SPLINE
  5
96
330
1F
100
AcDbEntity
  8
0
  6
Continuous
 62
     7
370
    15
100
AcDbSpline
210
0.0
220
0.0
230
1.0
 70
     8
 71
     3
 72
     9
 73
     5
 74
     0
 42
0.000000001
 43
0.00000001
 40
0.0
 40
0.0
 40
0.0
 40
0.0
 40
0.4379567991891211
 40
1.0
 40
1.0
 40
1.0
 40
1.0
 10
62.43195223954502
 20
77.66970546686281
 30
0.0
 10
62.57562674718638
 20
77.73839631059045
 30
0.0
 10
62.9036830940849
 20
77.89524019075127
 30
0.0
 10
63.24041879887498
 20
78.04459345033841
 30
0.0
 10
63.42967881222251
 20
78.12853643440832
 30
0.0
  0
SPLINE
  5
97
330
1F
100
AcDbEntity
  8
0
  6
Continuous
 62
     7
370
    15
100
AcDbSpline
210
0.0
220
0.0
230
1.0
 70
     8
 71
     3
 72
     9
 73
     5
 74
     0
 42
0.000000001
 43
0.00000001
 40
0.0
 40
0.0
 40
0.0
 40
0.0
 40
0.4434182669156201
 40
1.0
 40
1.0
 40
1.0
 40
1.0
 10
62.43028214533809
 20
75.46897997849811
 30
0.0
 10
62.57626063851077
 20
75.5388733776996
 30
0.0
 10
62.90547236491996
 20
75.69649746406765
 30
0.0
 10
63.24338942175585
 20
75.84630416339944
 30
0.0
 10
63.43146788288835
 20
75.92968383574117
 30
0.0
  0
SPLINE
  5
98
330
1F
100
AcDbEntity
  8
0
  6
Continuous
 62
     7
370
    15
100
AcDbSpline
210
0.0
220
0.0
230
1.0
 70
     8
 71
     3
 72
     9
 73
     5
 74
     0
 42
0.000000001
 43
0.00000001
 40
0.0
 40
0.0
 40
0.0
 40
0.0
 40
0.4367917015008524
 40
1.0
 40
1.0
 40
1.0
 40
1.0
 10
62.43252639991227
 20
73.26995508515466
 30
0.0
 10
62.575851832173
 20
73.3384824472826
 30
0.0
 10
62.90398405576665
 20
73.49537041445886
 30
0.0
 10
63.24115234409258
 20
73.64494551490802
 30
0.0
 10
63.43104832206848
 20
73.72918745272983
 30
0.0
  0
SPLINE
  5
99
330
1F
100
AcDbEntity
  8
0
  6
Continuous
 62
     7
370
    15
100
AcDbSpline
210
0.0
220
0.0
230
1.0
 70
     8
 71
     3
 72
     9
 73
     5
 74
     0
 42
0.000000001
 43
0.00000001
 40
0.0
 40
0.0
 40
0.0
 40
0.0
 40
0.7155512561442791
 40
1.0
 40
1.0
 40
1.0
 40
1.0
 10
59.15449166071597
 20
74.83003215634454
 30
0.0
 10
59.34479263013437
 20
74.74605314149169
 30
0.0
 10
59.6107427878405
 20
74.62869045903986
 30
0.0
 10
59.87000091570412
 20
74.50516946370314
 30
0.0
 10
59.9437465645093
 20
74.4700340717398
 30
0.0
  0
SPLINE
  5
9A
330
1F
100
AcDbEntity
  8
0
  6
Continuous
 62
     7
370
    15
100
AcDbSpline
210
0.0
220
0.0
230
1.0
 70
     8
 71
     3
 72
     9
 73
     5
 74
     0
 42
0.000000001
 43
0.00000001
 40
0.0
 40
0.0
 40
0.0
 40
0.0
 40
0.6435503271014645
 40
1.0
 40
1.0
 40
1.0
 40
1.0
 10
59.1579063549358
 20
77.02884191417326
 30
0.0
 10
59.32834888931978
 20
76.95349237549995
 30
0.0
 10
59.5931961393424
 20
76.8364082322711
 30
0.0
 10
59.85162845140734
 20
76.71338264473971
 30
0.0
 10
59.9437465645093
 20
76.66953021430601
 30
0.0
  0
SPLINE
  5
9B
330
1F
100
AcDbEntity
  8
0
  6
Continuous
 62
     7
370
    15
100
AcDbSpline
210
0.0
220
0.0
230
1.0
 70
     8
 71
     3
 72
    12
 73
     8
 74
     0
 42
0.000000001
 43
0.00000001
 40
0.0
 40
0.0
 40
0.0
 40
0.0
 40
0.299969649699851
 40
0.5112367896100366
 40
0.6401599845513035
 40
0.8869445519570086
 40
0.9999999999999999
 40
0.9999999999999999
 40
0.9999999999999999
 40
0.9999999999999999
 10
59.15588328947309
 20
79.22946402573217
 30
0.0
 10
59.23525625712909
 20
79.19430367205456
 30
0.0
 10
59.37053121313507
 20
79.13438005526973
 30
0.0
 10
59.53927447529541
 20
79.0583945685132
 30
0.0
 10
59.69218127860395
 20
78.98869377234428
 30
0.0
 10
59.82114108801833
 20
78.92974452357413
 30
0.0
 10
59.91443518779433
 20
78.88500144414621
 30
0.0
 10
59.9437465645093
 20
78.87094395005334
 30
0.0
  0
SPLINE
  5
9C
330
1F
100
AcDbEntity
  8
0
  6
Continuous
 62
     7
370
    15
100
AcDbSpline
210
0.0
220
0.0
230
1.0
 70
     8
 71
     3
 72
    10
 73
     6
 74
     0
 42
0.000000001
 43
0.00000001
 40
0.0
 40
0.0
 40
0.0
 40
0.0
 40
0.3435455224520033
 40
0.6656911082471157
 40
1.0
 40
1.0
 40
1.0
 40
1.0
 10
59.15752474551085
 20
81.4289704128467
 30
0.0
 10
59.24566238788246
 20
81.38995198424864
 30
0.0
 10
59.41644745418133
 20
81.31434564017489
 30
0.0
 10
59.68326493074134
 20
81.1947140785459
 30
0.0
 10
59.8558534015148
 20
81.11206045804006
 30
0.0
 10
59.9437465645093
 20
81.06996791207422
 30
0.0
  0
SPLINE
  5
9D
330
1F
100
AcDbEntity
  8
0
  6
Continuous
 62
     7
370
    15
100
AcDbSpline
210
0.0
220
0.0
230
1.0
 70
     8
 71
     3
 72
    10
 73
     6
 74
     0
 42
0.000000001
 43
0.00000001
 40
0.0
 40
0.0
 40
0.0
 40
0.0
 40
0.3810055702652722
 40
0.7137633670587263
 40
1.0
 40
1.0
 40
1.0
 40
1.0
 10
59.15506791655901
 20
83.62987378382314
 30
0.0
 10
59.25454964338543
 20
83.58598054063204
 30
0.0
 10
59.44091545491675
 20
83.50375237522908
 30
0.0
 10
59.71112570125341
 20
83.38190897555107
 30
0.0
 10
59.87019118688735
 20
83.30679304549648
 30
0.0
 10
59.9437465645093
 20
83.27205778801073
 30
0.0
  0
SPLINE
  5
9E
330
1F
100
AcDbEntity
  8
0
  6
Continuous
 62
     7
370
    15
100
AcDbSpline
210
0.0
220
0.0
230
1.0
 70
     8
 71
     3
 72
     9
 73
     5
 74
     0
 42
0.000000001
 43
0.00000001
 40
0.0
 40
0.0
 40
0.0
 40
0.0
 40
0.6405789175169627
 40
0.9999999999999999
 40
0.9999999999999999
 40
0.9999999999999999
 40
0.9999999999999999
 10
59.14045662951651
 20
85.83671899282564
 30
0.0
 10
59.31373401501989
 20
85.76004275521153
 30
0.0
 10
59.58423524564896
 20
85.64034440811119
 30
0.0
 10
59.84869437718139
 20
85.51466207032509
 30
0.0
 10
59.9437465645093
 20
85.46948918842901
 30
0.0
  0
SPLINE
  5
9F
330
1F
100
AcDbEntity
  8
0
  6
Continuous
 62
     7
370
    15
100
AcDbSpline
210
0.0
220
0.0
230
1.0
 70
     8
 71
     3
 72
     9
 73
     5
 74
     0
 42
0.000000001
 43
0.00000001
 40
0.0
 40
0.0
 40
0.0
 40
0.0
 40
0.6449333936034255
 40
1.0
 40
1.0
 40
1.0
 40
1.0
 10
59.14082194079641
 20
88.0363743915521
 30
0.0
 10
59.31514749307387
 20
87.95943656626477
 30
0.0
 10
59.58544757988353
 20
87.84014079704205
 30
0.0
 10
59.84986187725787
 20
87.71436978157202
 30
0.0
 10
59.9437465645093
 20
87.66971269392599
 30
0.0
  0
SPLINE
  5
A0
330
1F
100
AcDbEntity
  8
0
  6
Continuous
 62
     7
370
    15
100
AcDbSpline
210
0.0
220
0.0
230
1.0
 70
     8
 71
     3
 72
     9
 73
     5
 74
     0
 42
0.000000001
 43
0.00000001
 40
0.0
 40
0.0
 40
0.0
 40
0.0
 40
0.6445282321537386
 40
1.0
 40
1.0
 40
1.0
 40
1.0
 10
59.14298773144368
 20
90.23548030995954
 30
0.0
 10
59.31679930179545
 20
90.15862061545494
 30
0.0
 10
59.58647184937488
 20
90.03937107653594
 30
0.0
 10
59.85005145583331
 20
89.91401999534301
 30
0.0
 10
59.9437465645093
 20
89.86946122490991
 30
0.0
  0
LINE
  5
A1
330
1F
100
AcDbEntity
  8
0
  6
Continuous
 62
     7
370
    15
100
AcDbLine
 10
59.5480582198
 20
92.3925612285
 30
0.0
 11
59.9437465645
 21
92.2030594363
 31
0.0
  0
SPLINE
  5
A2
330
1F
100
AcDbEntity
  8
0
  6
Continuous
 62
     7
370
    15
100
AcDbSpline
210
0.0
220
0.0
230
1.0
 70
     8
 71
     3
 72
     9
 73
     5
 74
     0
 42
0.000000001
 43
0.00000001
 40
0.0
 40
0.0
 40
0.0
 40
0.0
 40
0.4921661407793466
 40
1.0
 40
1.0
 40
1.0
 40
1.0
 10
62.43070671201679
 20
68.86904055022825
 30
0.0
 10
62.59390163607995
 20
68.94692414289247
 30
0.0
 10
62.92548666507997
 20
69.10517069057427
 30
0.0
 10
63.26604591617544
 20
69.25614816242656
 30
0.0
 10
63.43899343495253
 20
69.33281963461269
 30
0.0
  0
SPLINE
  5
A3
330
1F
100
AcDbEntity
  8
0
  6
Continuous
 62
     7
370
    15
100
AcDbSpline
210
0.0
220
0.0
230
1.0
 70
     8
 71
     3
 72
     9
 73
     5
 74
     0
 42
0.000000001
 43
0.00000001
 40
0.0
 40
0.0
 40
0.0
 40
0.0
 40
0.6461594024119562
 40
1.0
 40
1.0
 40
1.0
 40
1.0
 10
59.15398851369503
 20
70.43021658205618
 30
0.0
 10
59.32645369999903
 20
70.35417798469943
 30
0.0
 10
59.59336181223916
 20
70.23650021498362
 30
0.0
 10
59.85216979369162
 20
70.11331614626567
 30
0.0
 10
59.9437465645093
 20
70.06972862177719
 30
0.0
  0
SPLINE
  5
A4
330
1F
100
AcDbEntity
  8
0
  6
Continuous
 62
     7
370
    15
100
AcDbSpline
210
0.0
220
0.0
230
1.0
 70
     8
 71
     3
 72
     9
 73
     5
 74
     0
 42
0.000000001
 43
0.00000001
 40
0.0
 40
0.0
 40
0.0
 40
0.0
 40
0.4542318917806705
 40
1.0
 40
1.0
 40
1.0
 40
1.0
 10
62.43110718072388
 20
66.66943032064665
 30
0.0
 10
62.5803669841286
 20
66.74083820839014
 30
0.0
 10
62.90896523120368
 20
66.89804400797318
 30
0.0
 10
63.24621826404825
 20
67.04750901494286
 30
0.0
 10
63.43028021377507
 20
67.12908224904169
 30
0.0
  0
SPLINE
  5
A5
330
1F
100
AcDbEntity
  8
0
  6
Continuous
 62
     7
370
    15
100
AcDbSpline
210
0.0
220
0.0
230
1.0
 70
     8
 71
     3
 72
     9
 73
     5
 74
     0
 42
0.000000001
 43
0.00000001
 40
0.0
 40
0.0
 40
0.0
 40
0.0
 40
0.3443204787971865
 40
1.0
 40
1.0
 40
1.0
 40
1.0
 10
62.31056516856882
 20
64.51791452014078
 30
0.0
 10
62.4095195911782
 20
64.56654154142242
 30
0.0
 10
62.6969100564652
 20
64.70776759179131
 30
0.0
 10
62.9954572583378
 20
64.84017504917976
 30
0.0
 10
63.19120854471806
 20
64.92699190744389
 30
0.0
  0
SPLINE
  5
A6
330
1F
100
AcDbEntity
  8
0
  6
Continuous
 62
     7
370
    15
100
AcDbSpline
210
0.0
220
0.0
230
1.0
 70
     8
 71
     3
 72
    11
 73
     7
 74
     0
 42
0.000000001
 43
0.00000001
 40
0.0
 40
0.0
 40
0.0
 40
0.0
 40
0.0971044208493819
 40
0.3613730378126925
 40
0.6619835870879109
 40
1.0
 40
1.0
 40
1.0
 40
1.0
 10
61.68966952112499
 20
62.19777694673468
 30
0.0
 10
61.71597144370927
 20
62.21567211940595
 30
0.0
 10
61.81385376030677
 20
62.28226880835001
 30
0.0
 10
62.02096386254696
 20
62.39487499620097
 30
0.0
 10
62.31237091760251
 20
62.54332018391246
 30
0.0
 10
62.52425440974833
 20
62.6422397858009
 30
0.0
 10
62.63640140981409
 20
62.69459656209875
 30
0.0
  0
SPLINE
  5
A7
330
1F
100
AcDbEntity
  8
0
  6
Continuous
 62
     7
370
    15
100
AcDbSpline
210
0.0
220
0.0
230
1.0
 70
     8
 71
     3
 72
     9
 73
     5
 74
     0
 42
0.000000001
 43
0.00000001
 40
0.0
 40
0.0
 40
0.0
 40
0.0
 40
0.6369376483969192
 40
1.0
 40
1.0
 40
1.0
 40
1.0
 10
60.29376471281979
 20
61.55399230078984
 30
0.0
 10
60.43287475487574
 20
61.48491846666114
 30
0.0
 10
60.65127924455549
 20
61.37647169121531
 30
0.0
 10
60.840549028658
 20
61.25571279697244
 30
0.0
 10
60.90926576156165
 20
61.21186978885163
 30
0.0
  0
SPLINE
  5
A8
330
1F
100
AcDbEntity
  8
0
  6
Continuous
 62
     7
370
    15
100
AcDbSpline
210
0.0
220
0.0
230
1.0
 70
     8
 71
     3
 72
     9
 73
     5
 74
     0
 42
0.000000001
 43
0.00000001
 40
0.0
 40
0.0
 40
0.0
 40
0.0
 40
0.8359136098004875
 40
1.0
 40
1.0
 40
1.0
 40
1.0
 10
59.63789254759434
 20
63.81713106998432
 30
0.0
 10
59.83879509902839
 20
63.72807327776042
 30
0.0
 10
60.07913399180224
 20
63.62153380863374
 30
0.0
 10
60.30558182650932
 20
63.50345959873609
 30
0.0
 10
60.34273883427489
 20
63.48408522785831
 30
0.0
  0
SPLINE
  5
A9
330
1F
100
AcDbEntity
  8
0
  6
Continuous
 62
     7
370
    15
100
AcDbSpline
210
0.0
220
0.0
230
1.0
 70
     8
 71
     3
 72
     9
 73
     5
 74
     0
 42
0.000000001
 43
0.00000001
 40
0.0
 40
0.0
 40
0.0
 40
0.0
 40
0.7201713755596584
 40
0.9999999999999999
 40
0.9999999999999999
 40
0.9999999999999999
 40
0.9999999999999999
 10
59.158946409421
 20
66.03815613084663
 30
0.0
 10
59.34888306107231
 20
65.95508201215175
 30
0.0
 10
59.61262119076916
 20
65.83972874831184
 30
0.0
 10
59.87134752913727
 20
65.7183868400435
 30
0.0
 10
59.9437465645093
 20
65.68443190076579
 30
0.0
  0
SPLINE
  5
AA
330
1F
100
AcDbEntity
  8
0
  6
Continuous
 62
     7
370
    15
100
AcDbSpline
210
0.0
220
0.0
230
1.0
 70
     8
 71
     3
 72
     9
 73
     5
 74
     0
 42
0.000000001
 43
0.00000001
 40
0.0
 40
0.0
 40
0.0
 40
0.0
 40
0.6461182484756337
 40
1.0
 40
1.0
 40
1.0
 40
1.0
 10
59.15044110600832
 20
68.2322347699963
 30
0.0
 10
59.32342460401171
 20
68.15582519080519
 30
0.0
 10
59.59115190998318
 20
68.03756575552167
 30
0.0
 10
59.85158429569865
 20
67.9135138031919
 30
0.0
 10
59.9437465645093
 20
67.86961408102144
 30
0.0
  0
SPLINE
  5
AB
330
1F
100
AcDbEntity
  8
0
  6
Continuous
 62
     7
370
    15
100
AcDbSpline
210
0.0
220
0.0
230
1.0
 70
     8
 71
     3
 72
     9
 73
     5
 74
     0
 42
0.000000001
 43
0.00000001
 40
0.0
 40
0.0
 40
0.0
 40
0.0
 40
0.6462398356809275
 40
1.0
 40
1.0
 40
1.0
 40
1.0
 10
63.42961990606967
 20
67.37852535912026
 30
0.0
 10
63.25786622853774
 20
67.45439712621454
 30
0.0
 10
62.99209233462272
 20
67.57180209400694
 30
0.0
 10
62.73477518993249
 20
67.69433377071016
 30
0.0
 10
62.64374663454476
 20
67.73768059679497
 30
0.0
  0
SPLINE
  5
AC
330
1F
100
AcDbEntity
  8
0
  6
Continuous
 62
     7
370
    15
100
AcDbSpline
210
0.0
220
0.0
230
1.0
 70
     8
 71
     3
 72
    10
 73
     6
 74
     0
 42
0.000000001
 43
0.00000001
 40
0.0
 40
0.0
 40
0.0
 40
0.0
 40
0.3698033737109795
 40
0.7966170519674225
 40
1.0
 40
1.0
 40
1.0
 40
1.0
 10
63.20059383154842
 20
65.19895765700568
 30
0.0
 10
63.13157308721473
 20
65.23035543491115
 30
0.0
 10
62.9828910962314
 20
65.29799139242658
 30
0.0
 10
62.79634364527978
 20
65.38423362532669
 30
0.0
 10
62.68097838884909
 20
65.44014725694387
 30
0.0
 10
62.64374663454476
 20
65.45819222697247
 30
0.0
  0
LINE
  5
AD
330
1F
100
AcDbEntity
  8
0
  6
Continuous
 62
     7
370
    15
100
AcDbLine
 10
62.6484251335
 20
63.0442390382
 30
0.0
 11
62.1928276597
 21
63.2758186828
 31
0.0
  0
SPLINE
  5
AE
330
1F
100
AcDbEntity
  8
0
  6
Continuous
 62
     7
370
    15
100
AcDbSpline
210
0.0
220
0.0
230
1.0
 70
     8
 71
     3
 72
     9
 73
     5
 74
     0
 42
0.000000001
 43
0.00000001
 40
0.0
 40
0.0
 40
0.0
 40
0.0
 40
0.7545043262418044
 40
1.0
 40
1.0
 40
1.0
 40
1.0
 10
62.04177255143407
 20
60.91311349769313
 30
0.0
 10
61.938223529323
 20
60.97204748418579
 30
0.0
 10
61.8009824049058
 20
61.05015702503653
 30
0.0
 10
61.69125045176656
 20
61.13518341343233
 30
0.0
 10
61.66431173199783
 20
61.15605702393879
 30
0.0
  0
SPLINE
  5
AF
330
1F
100
AcDbEntity
  8
0
  6
Continuous
 62
     7
370
    15
100
AcDbSpline
210
0.0
220
0.0
230
1.0
 70
     8
 71
     3
 72
    10
 73
     6
 74
     0
 42
0.000000001
 43
0.00000001
 40
0.0
 40
0.0
 40
0.0
 40
0.0
 40
0.1239080038019463
 40
0.5120405027843594
 40
1.0
 40
1.0
 40
1.0
 40
1.0
 10
60.91746003233823
 20
62.37070422389735
 30
0.0
 10
60.89363407089446
 20
62.3527056959686
 30
0.0
 10
60.79517507791049
 20
62.27832813352517
 30
0.0
 10
60.56705601630003
 20
62.14355587020204
 30
0.0
 10
60.35449570208242
 20
62.03231184123127
 30
0.0
 10
60.23610536807212
 20
61.97035193213452
 30
0.0
  0
SPLINE
  5
B0
330
1F
100
AcDbEntity
  8
0
  6
Continuous
 62
     7
370
    15
100
AcDbSpline
210
0.0
220
0.0
230
1.0
 70
     8
 71
     3
 72
    10
 73
     6
 74
     0
 42
0.000000001
 43
0.00000001
 40
0.0
 40
0.0
 40
0.0
 40
0.0
 40
0.2263453448035156
 40
0.5891228863116859
 40
1.0
 40
1.0
 40
1.0
 40
1.0
 10
60.35650442221198
 20
64.47156771787633
 30
0.0
 10
60.3026295729416
 20
64.44342190543533
 30
0.0
 10
60.16240620440127
 20
64.37016507624263
 30
0.0
 10
59.91511842348079
 20
64.25009992074305
 30
0.0
 10
59.72193647195334
 20
64.16005425615681
 30
0.0
 10
59.61934025266203
 20
64.11223226928342
 30
0.0
  0
SPLINE
  5
B1
330
1F
100
AcDbEntity
  8
0
  6
Continuous
 62
     7
370
    15
100
AcDbSpline
210
0.0
220
0.0
230
1.0
 70
     8
 71
     3
 72
     9
 73
     5
 74
     0
 42
0.000000001
 43
0.00000001
 40
0.0
 40
0.0
 40
0.0
 40
0.0
 40
0.4400032699812409
 40
0.9999999999999999
 40
0.9999999999999999
 40
0.9999999999999999
 40
0.9999999999999999
 10
60.15522698738608
 20
66.73729579665888
 30
0.0
 10
60.01060556578138
 20
66.66817161809227
 30
0.0
 10
59.68192295937516
 20
66.51107237978535
 30
0.0
 10
59.34546821634019
 20
66.36193720082403
 30
0.0
 10
59.15705466044131
 20
66.27842198827494
 30
0.0
  0
SPLINE
  5
B2
330
1F
100
AcDbEntity
  8
0
  6
Continuous
 62
     7
370
    15
100
AcDbSpline
210
0.0
220
0.0
230
1.0
 70
     8
 71
     3
 72
     9
 73
     5
 74
     0
 42
0.000000001
 43
0.00000001
 40
0.0
 40
0.0
 40
0.0
 40
0.0
 40
0.4961396889769296
 40
1.0
 40
1.0
 40
1.0
 40
1.0
 10
60.12722945173267
 20
68.92313362800706
 30
0.0
 10
59.97291212452349
 20
68.84988222688995
 30
0.0
 10
59.66187607834991
 20
68.70223953120448
 30
0.0
 10
59.33753740777811
 20
68.55797654508875
 30
0.0
 10
59.17411602434698
 20
68.48528815203537
 30
0.0
  0
SPLINE
  5
B3
330
1F
100
AcDbEntity
  8
0
  6
Continuous
 62
     7
370
    15
100
AcDbSpline
210
0.0
220
0.0
230
1.0
 70
     8
 71
     3
 72
     9
 73
     5
 74
     0
 42
0.000000001
 43
0.00000001
 40
0.0
 40
0.0
 40
0.0
 40
0.0
 40
0.7159091428323642
 40
1.0
 40
1.0
 40
1.0
 40
1.0
 10
63.43289792870167
 20
69.5771064772569
 30
0.0
 10
63.24252895556921
 20
69.66112554004897
 30
0.0
 10
62.97661675841623
 20
69.77848549226253
 30
0.0
 10
62.71739045677766
 20
69.90205029206614
 30
0.0
 10
62.64374663454476
 20
69.9371539219581
 30
0.0
  0
LINE
  5
B4
330
1F
100
AcDbEntity
  8
0
  6
Continuous
 62
     7
370
    15
100
AcDbLine
 10
59.5987066846
 20
70.87602766
 30
0.0
 11
59.152478607
 21
70.6763893529
 31
0.0
  0
SPLINE
  5
B5
330
1F
100
AcDbEntity
  8
0
  6
Continuous
 62
     7
370
    15
100
AcDbSpline
210
0.0
220
0.0
230
1.0
 70
     8
 71
     3
 72
     9
 73
     5
 74
     0
 42
0.000000001
 43
0.00000001
 40
0.0
 40
0.0
 40
0.0
 40
0.0
 40
0.7116425800957006
 40
1.0
 40
1.0
 40
1.0
 40
1.0
 10
63.42956239690069
 20
71.77849879258503
 30
0.0
 10
63.24134835216719
 20
71.86173267181353
 30
0.0
 10
62.97687001711844
 20
71.97869290094613
 30
0.0
 10
62.71830560212992
 20
72.10190364362393
 30
0.0
 10
62.64374663454476
 20
72.13743237548698
 30
0.0
  0
SPLINE
  5
B6
330
1F
100
AcDbEntity
  8
0
  6
Continuous
 62
     7
370
    15
100
AcDbSpline
210
0.0
220
0.0
230
1.0
 70
     8
 71
     3
 72
     9
 73
     5
 74
     0
 42
0.000000001
 43
0.00000001
 40
0.0
 40
0.0
 40
0.0
 40
0.0
 40
0.5619788886213263
 40
0.9999999999999999
 40
0.9999999999999999
 40
0.9999999999999999
 40
0.9999999999999999
 10
60.16129001376215
 20
73.34031278037656
 30
0.0
 10
59.97531081385117
 20
73.25163081976316
 30
0.0
 10
59.64437453906115
 20
73.09382780899354
 30
0.0
 10
59.30592390834875
 20
72.94390600165251
 30
0.0
 10
59.15767538693729
 20
72.8782370849811
 30
0.0
  0
SPLINE
  5
B7
330
1F
100
AcDbEntity
  8
0
  6
Continuous
 62
     7
370
    15
100
AcDbSpline
210
0.0
220
0.0
230
1.0
 70
     8
 71
     3
 72
     9
 73
     5
 74
     0
 42
0.000000001
 43
0.00000001
 40
0.0
 40
0.0
 40
0.0
 40
0.0
 40
0.4709800976286717
 40
1.0
 40
1.0
 40
1.0
 40
1.0
 10
62.41672197223637
 20
71.06245981299509
 30
0.0
 10
62.57367457447537
 20
71.13777384276995
 30
0.0
 10
62.90692135715096
 20
71.29768299849452
 30
0.0
 10
63.25008461668568
 20
71.44943667308132
 30
0.0
 10
63.43162481074217
 20
71.52971738719572
 30
0.0
  0
SPLINE
  5
B8
330
1F
100
AcDbEntity
  8
0
  6
Continuous
 62
     7
370
    15
100
AcDbSpline
210
0.0
220
0.0
230
1.0
 70
     8
 71
     3
 72
     9
 73
     5
 74
     0
 42
0.000000001
 43
0.00000001
 40
0.0
 40
0.0
 40
0.0
 40
0.0
 40
0.6468216570874135
 40
1.0
 40
1.0
 40
1.0
 40
1.0
 10
59.15245555673722
 20
72.63130528622497
 30
0.0
 10
59.32526784724877
 20
72.5549742228421
 30
0.0
 10
59.59243931347595
 20
72.43696477998178
 30
0.0
 10
59.85205568472026
 20
72.31327799364436
 30
0.0
 10
59.9437465645093
 20
72.26959449940551
 30
0.0
  0
LINE
  5
B9
330
1F
100
AcDbEntity
  8
0
  6
Continuous
 62
     7
370
    15
100
AcDbLine
 10
59.2146923519
 20
108.1338014617
 30
0.0
 11
59.6437466085
 21
106.8938013329
 31
0.0
  0
LINE
  5
BA
330
1F
100
AcDbEntity
  8
0
  6
Continuous
 62
     7
370
    15
100
AcDbLine
 10
62.9437465906
 20
106.8938013329
 30
0.0
 11
63.3728008471
 21
108.1338014617
 31
0.0
  0
LINE
  5
BB
330
1F
100
AcDbEntity
  8
0
  6
Continuous
 62
     7
370
    15
100
AcDbLine
 10
62.0559126475
 20
98.1333602383
 30
0.0
 11
62.4764288297
 21
98.8369036629
 31
0.0
  0
LINE
  5
BC
330
1F
100
AcDbEntity
  8
0
  6
Continuous
 62
     7
370
    15
100
AcDbLine
 10
60.547809837
 20
96.4831125154
 30
0.0
 11
60.2196026813
 21
95.9221769288
 31
0.0
  0
LINE
  5
BD
330
1F
100
AcDbEntity
  8
0
  6
Continuous
 62
     7
370
    15
100
AcDbLine
 10
61.8826617357
 20
101.8478285685
 30
0.0
 11
61.9265511851
 21
101.9550275221
 31
0.0
  0
LINE
  5
BE
330
1F
100
AcDbEntity
  8
0
  6
Continuous
 62
     7
370
    15
100
AcDbLine
 10
61.8718058905
 20
101.8213119521
 30
0.0
 11
61.8826617357
 21
101.8478285685
 31
0.0
  0
LINE
  5
BF
330
1F
100
AcDbEntity
  8
0
  6
Continuous
 62
     7
370
    15
100
AcDbLine
 10
60.5305314749
 20
100.1476507797
 30
0.0
 11
60.1055206718
 21
99.4388658717
 31
0.0
  0
LINE
  5
C0
330
1F
100
AcDbEntity
  8
0
  6
Continuous
 62
     7
370
    15
100
AcDbLine
 10
59.6437466085
 20
102.8698023572
 30
0.0
 11
59.7904861426
 21
101.8915373995
 31
0.0
  0
LINE
  5
C1
330
1F
100
AcDbEntity
  8
0
  6
Continuous
 62
     7
370
    15
100
AcDbLine
 10
62.7937466126
 20
101.8698003306
 30
0.0
 11
62.9437465906
 21
102.8698023572
 31
0.0
  0
LINE
  5
C2
330
1F
100
AcDbEntity
  8
0
  6
Continuous
 62
     7
370
    15
100
AcDbLine
 10
62.9437465906
 20
102.8698023572
 30
0.0
 11
62.9437465906
 21
106.8938013329
 31
0.0
  0
LINE
  5
C3
330
1F
100
AcDbEntity
  8
0
  6
Continuous
 62
     7
370
    15
100
AcDbLine
 10
59.6437466085
 20
106.8938013329
 30
0.0
 11
59.6437466085
 21
102.8698023572
 31
0.0
  0
LINE
  5
C4
330
1F
100
AcDbEntity
  8
0
  6
Continuous
 62
     7
370
    15
100
AcDbLine
 10
62.7937466126
 20
101.3352248981
 30
0.0
 11
62.7937466126
 21
101.8698003306
 31
0.0
  0
LINE
  5
C5
330
1F
100
AcDbEntity
  8
0
  6
Continuous
 62
     7
370
    15
100
AcDbLine
 10
62.7937466126
 20
97.7051045909
 30
0.0
 11
62.7937466126
 21
99.3946466758
 31
0.0
  0
LINE
  5
C6
330
1F
100
AcDbEntity
  8
0
  6
Continuous
 62
     7
370
    15
100
AcDbLine
 10
62.7937466126
 20
93.8698027446
 30
0.0
 11
62.7937466126
 21
95.7126852288
 31
0.0
  0
LINE
  5
C7
330
1F
100
AcDbEntity
  8
0
  6
Continuous
 62
     7
370
    15
100
AcDbLine
 10
59.7937465865
 20
96.8791667535
 30
0.0
 11
59.7937465865
 21
93.8698027446
 31
0.0
  0
LINE
  5
C8
330
1F
100
AcDbEntity
  8
0
  6
Continuous
 62
     7
370
    15
100
AcDbLine
 10
59.7937465865
 20
100.6538096979
 30
0.0
 11
59.7937465865
 21
98.8955322816
 31
0.0
  0
SPLINE
  5
C9
330
1F
100
AcDbEntity
  8
0
  6
Continuous
 62
     7
370
    15
100
AcDbSpline
210
0.0
220
0.0
230
1.0
 70
     8
 71
     3
 72
     9
 73
     5
 74
     0
 42
0.000000001
 43
0.00000001
 40
0.0
 40
0.0
 40
0.0
 40
0.0
 40
0.0684248122208917
 40
1.0
 40
1.0
 40
1.0
 40
1.0
 10
62.22516352876085
 20
94.912988336321
 30
0.0
 10
62.23241229472672
 20
94.92447718565309
 30
0.0
 10
62.33834997625759
 20
95.09238191142688
 30
0.0
 10
62.45990823407598
 20
95.25627365402767
 30
0.0
 10
62.57314889092925
 20
95.40895113491644
 30
0.0
  0
LINE
  5
CA
330
1F
100
AcDbEntity
  8
0
  6
Continuous
 62
     7
370
    15
100
AcDbLine
 10
59.7937465865
 20
93.8698027446
 30
0.0
 11
59.9437465645
 21
92.8698007181
 31
0.0
  0
LINE
  5
CB
330
1F
100
AcDbEntity
  8
0
  6
Continuous
 62
     7
370
    15
100
AcDbLine
 10
62.7635088969
 20
93.6682161107
 30
0.0
 11
62.7937466126
 21
93.8698027446
 31
0.0
  0
LINE
  5
CC
330
1F
100
AcDbEntity
  8
0
  6
Continuous
 62
     7
370
    15
100
AcDbLine
 10
62.6437466345
 20
92.8698007181
 30
0.0
 11
62.7437974546
 21
93.5368064954
 31
0.0
  0
LINE
  5
CD
330
1F
100
AcDbEntity
  8
0
  6
Continuous
 62
     7
370
    15
100
AcDbLine
 10
62.6437466345
 20
91.8375786557
 30
0.0
 11
62.6437466345
 21
92.8698007181
 31
0.0
  0
LINE
  5
CE
330
1F
100
AcDbEntity
  8
0
  6
Continuous
 62
     7
370
    15
100
AcDbLine
 10
62.6437466345
 20
89.6387856617
 30
0.0
 11
62.6437466345
 21
90.9696586593
 31
0.0
  0
LINE
  5
CF
330
1F
100
AcDbEntity
  8
0
  6
Continuous
 62
     7
370
    15
100
AcDbLine
 10
62.6437466345
 20
87.43857892
 30
0.0
 11
62.6437466345
 21
88.7697201385
 31
0.0
  0
LINE
  5
D0
330
1F
100
AcDbEntity
  8
0
  6
Continuous
 62
     7
370
    15
100
AcDbLine
 10
62.6437466345
 20
85.2387875482
 30
0.0
 11
62.6437466345
 21
86.5692023351
 31
0.0
  0
LINE
  5
D1
330
1F
100
AcDbEntity
  8
0
  6
Continuous
 62
     7
370
    15
100
AcDbLine
 10
62.6437466345
 20
83.0385752186
 30
0.0
 11
62.6437466345
 21
84.3693047925
 31
0.0
  0
LINE
  5
D2
330
1F
100
AcDbEntity
  8
0
  6
Continuous
 62
     7
370
    15
100
AcDbLine
 10
62.6437466345
 20
80.8387819841
 30
0.0
 11
62.6437466345
 21
82.1719870135
 31
0.0
  0
LINE
  5
D3
330
1F
100
AcDbEntity
  8
0
  6
Continuous
 62
     7
370
    15
100
AcDbLine
 10
62.6437466345
 20
78.6385845556
 30
0.0
 11
62.6437466345
 21
79.9709737464
 31
0.0
  0
LINE
  5
D4
330
1F
100
AcDbEntity
  8
0
  6
Continuous
 62
     7
370
    15
100
AcDbLine
 10
62.6437466345
 20
76.4387726947
 30
0.0
 11
62.6437466345
 21
77.7698710724
 31
0.0
  0
LINE
  5
D5
330
1F
100
AcDbEntity
  8
0
  6
Continuous
 62
     7
370
    15
100
AcDbLine
 10
62.6437466345
 20
74.2386106565
 30
0.0
 11
62.6437466345
 21
75.5700415164
 31
0.0
  0
LINE
  5
D6
330
1F
100
AcDbEntity
  8
0
  6
Continuous
 62
     7
370
    15
100
AcDbLine
 10
62.6437466345
 20
72.0387503668
 30
0.0
 11
62.6437466345
 21
73.3698589891
 31
0.0
  0
LINE
  5
D7
330
1F
100
AcDbEntity
  8
0
  6
Continuous
 62
     7
370
    15
100
AcDbLine
 10
59.9437465645
 20
74.5686471626
 30
0.0
 11
59.9437465645
 21
73.2379855751
 31
0.0
  0
LINE
  5
D8
330
1F
100
AcDbEntity
  8
0
  6
Continuous
 62
     7
370
    15
100
AcDbLine
 10
59.9437465645
 20
76.7684478476
 30
0.0
 11
59.9437465645
 21
75.4376176908
 31
0.0
  0
LINE
  5
D9
330
1F
100
AcDbEntity
  8
0
  6
Continuous
 62
     7
370
    15
100
AcDbLine
 10
59.9437465645
 20
78.9686173364
 30
0.0
 11
59.9437465645
 21
77.6371725067
 31
0.0
  0
LINE
  5
DA
330
1F
100
AcDbEntity
  8
0
  6
Continuous
 62
     7
370
    15
100
AcDbLine
 10
59.9437465645
 20
81.1684739008
 30
0.0
 11
59.9437465645
 21
79.837669821
 31
0.0
  0
LINE
  5
DB
330
1F
100
AcDbEntity
  8
0
  6
Continuous
 62
     7
370
    15
100
AcDbLine
 10
59.9437465645
 20
83.3685912355
 30
0.0
 11
59.9437465645
 21
82.0374388411
 31
0.0
  0
LINE
  5
DC
330
1F
100
AcDbEntity
  8
0
  6
Continuous
 62
     7
370
    15
100
AcDbLine
 10
59.9437465645
 20
85.5684980913
 30
0.0
 11
59.9437465645
 21
84.2381019309
 31
0.0
  0
LINE
  5
DD
330
1F
100
AcDbEntity
  8
0
  6
Continuous
 62
     7
370
    15
100
AcDbLine
 10
59.9437465645
 20
87.7685725852
 30
0.0
 11
59.9437465645
 21
86.4371556952
 31
0.0
  0
LINE
  5
DE
330
1F
100
AcDbEntity
  8
0
  6
Continuous
 62
     7
370
    15
100
AcDbLine
 10
59.9437465645
 20
89.9685222819
 30
0.0
 11
59.9437465645
 21
88.6365186586
 31
0.0
  0
LINE
  5
DF
330
1F
100
AcDbEntity
  8
0
  6
Continuous
 62
     7
370
    15
100
AcDbLine
 10
59.9437465645
 20
92.3290822818
 30
0.0
 11
59.9437465645
 21
90.8371370449
 31
0.0
  0
LINE
  5
E0
330
1F
100
AcDbEntity
  8
0
  6
Continuous
 62
     7
370
    15
100
AcDbLine
 10
62.6437466345
 20
67.6387243136
 30
0.0
 11
62.6437466345
 21
68.9694995224
 31
0.0
  0
LINE
  5
E1
330
1F
100
AcDbEntity
  8
0
  6
Continuous
 62
     7
370
    15
100
AcDbLine
 10
62.6437466345
 20
65.3454658739
 30
0.0
 11
62.6437466345
 21
66.7700001202
 31
0.0
  0
LINE
  5
E2
330
1F
100
AcDbEntity
  8
0
  6
Continuous
 62
     7
370
    15
100
AcDbLine
 10
59.9437465645
 20
65.7713196404
 30
0.0
 11
59.9437465645
 21
65.0843556202
 31
0.0
  0
LINE
  5
E3
330
1F
100
AcDbEntity
  8
0
  6
Continuous
 62
     7
370
    15
100
AcDbLine
 10
59.9437465645
 20
67.9684208869
 30
0.0
 11
59.9437465645
 21
66.6373136617
 31
0.0
  0
LINE
  5
E4
330
1F
100
AcDbEntity
  8
0
  6
Continuous
 62
     7
370
    15
100
AcDbLine
 10
59.9437465645
 20
70.1686797827
 30
0.0
 11
59.9437465645
 21
68.8369769766
 31
0.0
  0
LINE
  5
E5
330
1F
100
AcDbEntity
  8
0
  6
Continuous
 62
     7
370
    15
100
AcDbLine
 10
62.6437466345
 20
69.8386581778
 30
0.0
 11
62.6437466345
 21
71.1700229138
 31
0.0
  0
LINE
  5
E6
330
1F
100
AcDbEntity
  8
0
  6
Continuous
 62
     7
370
    15
100
AcDbLine
 10
59.9437465645
 20
72.3684217944
 30
0.0
 11
59.9437465645
 21
71.03513574
 31
0.0
  0
LINE
  5
E7
330
1F
100
AcDbEntity
  8
0
  6
Continuous
 62
     7
370
    15
100
AcDbLine
 10
60.8582418573
 20
61.4165154682
 30
0.0
 11
61.2937465995
 21
59.6698014112
 31
0.0
  0
LINE
  5
E8
330
1F
100
AcDbEntity
  8
0
  6
Continuous
 62
     7
370
    15
100
AcDbLine
 10
60.314516326
 20
63.5972795706
 30
0.0
 11
60.6618384119
 21
62.2042468447
 31
0.0
  0
LINE
  5
E9
330
1F
100
AcDbEntity
  8
0
  6
Continuous
 62
     7
370
    15
100
AcDbLine
 10
59.9437465645
 20
65.0843556202
 30
0.0
 11
60.1258257158
 21
64.3540762528
 31
0.0
  0
LINE
  5
EA
330
1F
100
AcDbEntity
  8
0
  6
Continuous
 62
     7
370
    15
100
AcDbLine
 10
62.1557203923
 20
63.1269893772
 30
0.0
 11
62.5289662495
 21
64.623996818
 31
0.0
  0
LINE
  5
EB
330
1F
100
AcDbEntity
  8
0
  6
Continuous
 62
     7
370
    15
100
AcDbLine
 10
61.6086350857
 20
60.9327501431
 30
0.0
 11
61.964979068
 21
62.3619677197
 31
0.0
  0
LINE
  5
EC
330
1F
100
AcDbEntity
  8
0
  6
Continuous
 62
     7
370
    15
100
AcDbLine
 10
61.2937465995
 20
59.6698014112
 30
0.0
 11
61.4542510813
 21
60.313549692
 31
0.0
  0
LINE
  5
ED
330
1F
100
AcDbEntity
  8
0
  6
Continuous
 62
     7
370
    15
100
AcDbLine
 10
57.6053213082
 20
109.4842229202
 30
0.0
 11
59.2146923519
 21
108.1338014617
 31
0.0
  0
LINE
  5
EE
330
1F
100
AcDbEntity
  8
0
  6
Continuous
 62
     7
370
    15
100
AcDbLine
 10
62.6658568145
 20
109.4734978094
 30
0.0
 11
61.246743193
 21
108.4096405818
 31
0.0
  0
LINE
  5
EF
330
1F
100
AcDbEntity
  8
0
  6
Continuous
 62
     7
370
    15
100
AcDbLine
 10
61.246743193
 20
108.4096405818
 30
0.0
 11
60.5323352721
 21
109.479909034
 31
0.0
  0
LINE
  5
F0
330
1F
100
AcDbEntity
  8
0
  6
Continuous
 62
     7
370
    15
100
AcDbLine
 10
59.7934222534
 20
109.4842229202
 30
0.0
 11
59.2033236973
 21
109.4842229202
 31
0.0
  0
LINE
  5
F1
330
1F
100
AcDbEntity
  8
0
  6
Continuous
 62
     7
370
    15
100
AcDbLine
 10
59.2033236973
 20
109.4842229202
 30
0.0
 11
57.7562286272
 21
109.4842229202
 31
0.0
  0
LINE
  5
F2
330
1F
100
AcDbEntity
  8
0
  6
Continuous
 62
     7
370
    15
100
AcDbLine
 10
57.7562286272
 20
109.4842229202
 30
0.0
 11
57.6970339972
 21
109.4842229202
 31
0.0
  0
SPLINE
  5
F3
330
1F
100
AcDbEntity
  8
0
  6
Continuous
 62
     7
370
    15
100
AcDbSpline
210
0.0
220
0.0
230
1.0
 70
     8
 71
     3
 72
     9
 73
     5
 74
     0
 42
0.000000001
 43
0.00000001
 40
0.0
 40
0.0
 40
0.0
 40
0.0
 40
0.499999999999972
 40
0.9999999999999999
 40
0.9999999999999999
 40
0.9999999999999999
 40
0.9999999999999999
 10
57.69703407539928
 20
109.4842241925731
 30
0.0
 10
57.68254687803807
 20
109.4836796650575
 30
0.0
 10
57.65357248331567
 20
109.4825906100263
 30
0.0
 10
57.63486724013033
 20
109.4836796650575
 30
0.0
 10
57.62551461853765
 20
109.4842241925731
 30
0.0
  0
LINE
  5
F4
330
1F
100
AcDbEntity
  8
0
  6
Continuous
 62
     7
370
    15
100
AcDbLine
 10
64.9706800688
 20
109.4842229202
 30
0.0
 11
63.9668486766
 21
109.4842229202
 31
0.0
  0
LINE
  5
F5
330
1F
100
AcDbEntity
  8
0
  6
Continuous
 62
     7
370
    15
100
AcDbLine
 10
63.9668486766
 20
109.4842229202
 30
0.0
 11
63.7999908287
 21
109.4842229202
 31
0.0
  0
SPLINE
  5
F6
330
1F
100
AcDbEntity
  8
0
  6
Continuous
 62
     7
370
    15
100
AcDbSpline
210
0.0
220
0.0
230
1.0
 70
     8
 71
     3
 72
     9
 73
     5
 74
     0
 42
0.000000001
 43
0.00000001
 40
0.0
 40
0.0
 40
0.0
 40
0.0
 40
0.4999999999999789
 40
1.0
 40
1.0
 40
1.0
 40
1.0
 10
63.7999909226683
 20
109.4842241925731
 30
0.0
 10
63.74525322292075
 20
109.4836796650575
 30
0.0
 10
63.63577782342565
 20
109.4825906100263
 30
0.0
 10
63.51969541207482
 20
109.4836796650575
 30
0.0
 10
63.4616542063994
 20
109.4842241925731
 30
0.0
  0
LINE
  5
F7
330
1F
100
AcDbEntity
  8
0
  6
Continuous
 62
     7
370
    15
100
AcDbLine
 10
63.461654143
 20
109.4842229202
 30
0.0
 11
62.8802571665
 21
109.4842229202
 31
0.0
  0
LINE
  5
F8
330
1F
100
AcDbEntity
  8
0
  6
Continuous
 62
     7
370
    15
100
AcDbLine
 10
62.8802571665
 20
109.4842229202
 30
0.0
 11
60.4293306461
 21
109.4842229202
 31
0.0
  0
LINE
  5
F9
330
1F
100
AcDbEntity
  8
0
  6
Continuous
 62
     7
370
    15
100
AcDbLine
 10
60.4293306461
 20
109.4842229202
 30
0.0
 11
60.2032783428
 21
109.4842229202
 31
0.0
  0
SPLINE
  5
FA
330
1F
100
AcDbEntity
  8
0
  6
Continuous
 62
     7
370
    15
100
AcDbSpline
210
0.0
220
0.0
230
1.0
 70
     8
 71
     3
 72
     9
 73
     5
 74
     0
 42
0.000000001
 43
0.00000001
 40
0.0
 40
0.0
 40
0.0
 40
0.0
 40
0.499999999999974
 40
1.0
 40
1.0
 40
1.0
 40
1.0
 10
60.20327839854058
 20
109.4842241925731
 30
0.0
 10
60.13405350143183
 20
109.4836796650575
 30
0.0
 10
59.99560370721431
 20
109.4825906100263
 30
0.0
 10
59.86081605267814
 20
109.4836796650575
 30
0.0
 10
59.79342222541004
 20
109.4842241925731
 30
0.0
  0
LINE
  5
FB
330
1F
100
AcDbEntity
  8
0
  6
Continuous
 62
     7
370
    15
100
AcDbLine
 10
61.2937465995
 20
110.4698006227
 30
0.0
 11
64.3437465407
 21
110.4698006227
 31
0.0
  0
LINE
  5
FC
330
1F
100
AcDbEntity
  8
0
  6
Continuous
 62
     7
370
    15
100
AcDbLine
 10
58.2437466584
 20
110.4698006227
 30
0.0
 11
61.2937465995
 21
110.4698006227
 31
0.0
  0
SPLINE
  5
FD
330
1F
100
AcDbEntity
  8
0
  6
Continuous
 62
     7
370
    15
100
AcDbSpline
210
0.0
220
0.0
230
1.0
 70
     8
 71
     3
 72
    12
 73
     8
 74
     0
 42
0.000000001
 43
0.00000001
 40
0.0
 40
0.0
 40
0.0
 40
0.0
 40
0.5
 40
0.5
 40
0.75
 40
0.75
 40
1.0
 40
1.0
 40
1.0
 40
1.0
 10
60.42933062277092
 20
109.4842241925731
 30
0.0
 10
60.8417479527985
 20
109.4597271355214
 30
0.0
 10
61.25468824613235
 20
109.4473300241481
 30
0.0
 10
61.87488442064846
 20
109.4472072760998
 30
0.0
 10
62.08237700757699
 20
109.4503335049041
 30
0.0
 10
62.48711190632326
 20
109.4627277372648
 30
0.0
 10
62.68563099774325
 20
109.4719735795051
 30
0.0
 10
62.88025718365677
 20
109.4842241925731
 30
0.0
  0
SPLINE
  5
FE
330
1F
100
AcDbEntity
  8
0
  6
Continuous
 62
     7
370
    15
100
AcDbSpline
210
0.0
220
0.0
230
1.0
 70
     8
 71
     3
 72
     8
 73
     4
 74
     0
 42
0.000000001
 43
0.00000001
 40
0.0
 40
0.0
 40
0.0
 40
0.0
 40
1.0
 40
1.0
 40
1.0
 40
1.0
 10
59.93618739536753
 20
109.4841558197515
 30
0.0
 10
60.2087100947369
 20
109.1984624875909
 30
0.0
 10
60.48096540445305
 20
108.9118250516338
 30
0.0
 10
60.75336749980909
 20
108.6257058888343
 30
0.0
  0
SPLINE
  5
FF
330
1F
100
AcDbEntity
  8
0
  6
Continuous
 62
     7
370
    15
100
AcDbSpline
210
0.0
220
0.0
230
1.0
 70
     8
 71
     3
 72
     8
 73
     4
 74
     0
 42
0.000000001
 43
0.00000001
 40
0.0
 40
0.0
 40
0.0
 40
0.0
 40
1.0
 40
1.0
 40
1.0
 40
1.0
 10
61.2467431947012
 20
108.2235517556746
 30
0.0
 10
60.96834079147727
 20
108.6286420007724
 30
0.0
 10
60.69840383963751
 20
109.0553312187338
 30
0.0
 10
60.42933062277088
 20
109.484224192573
 30
0.0
  0
LINE
  5
100
330
1F
100
AcDbEntity
  8
0
  6
Continuous
 62
     7
370
    15
100
AcDbLine
 10
61.246743193
 20
108.4096405818
 30
0.0
 11
61.246743193
 21
108.2235511556
 31
0.0
  0
LINE
  5
101
330
1F
100
AcDbEntity
  8
0
  6
Continuous
 62
     7
370
    15
100
AcDbLine
 10
62.9771859605
 20
108.1338014617
 30
0.0
 11
61.0788805281
 21
108.1338014617
 31
0.0
  0
SPLINE
  5
102
330
1F
100
AcDbEntity
  8
0
  6
Continuous
 62
     7
370
    15
100
AcDbSpline
210
0.0
220
0.0
230
1.0
 70
     8
 71
     3
 72
     8
 73
     4
 74
     0
 42
0.000000001
 43
0.00000001
 40
0.0
 40
0.0
 40
0.0
 40
0.0
 40
1.0
 40
1.0
 40
1.0
 40
1.0
 10
61.07888052304696
 20
108.1338014110219
 30
0.0
 10
60.78193637787507
 20
108.5715533510124
 30
0.0
 10
60.49235992234625
 20
109.0272848738051
 30
0.0
 10
60.20327839854058
 20
109.4842241925731
 30
0.0
  0
SPLINE
  5
103
330
1F
100
AcDbEntity
  8
0
  6
Continuous
 62
     7
370
    15
100
AcDbSpline
210
0.0
220
0.0
230
1.0
 70
     8
 71
     3
 72
    10
 73
     6
 74
     0
 42
0.000000001
 43
0.00000001
 40
0.0
 40
0.0
 40
0.0
 40
0.0
 40
0.5
 40
0.5
 40
1.0
 40
1.0
 40
1.0
 40
1.0
 10
62.88025718365677
 20
109.4842241925731
 30
0.0
 10
62.61906617444002
 20
109.2513568752902
 30
0.0
 10
62.35484153690316
 20
109.0233711480503
 30
0.0
 10
61.81468382955212
 20
108.5937046942102
 30
0.0
 10
61.53931473639876
 20
108.3902036333525
 30
0.0
 10
61.24674319470125
 20
108.2235517556745
 30
0.0
  0
SPLINE
  5
104
330
1F
100
AcDbEntity
  8
0
  6
Continuous
 62
     7
370
    15
100
AcDbSpline
210
0.0
220
0.0
230
1.0
 70
     8
 71
     3
 72
    10
 73
     6
 74
     0
 42
0.000000001
 43
0.00000001
 40
0.0
 40
0.0
 40
0.0
 40
0.0
 40
0.5
 40
0.5
 40
1.0
 40
1.0
 40
1.0
 40
1.0
 10
63.4616542063994
 20
109.4842241925731
 30
0.0
 10
63.38268470695913
 20
109.2500769815599
 30
0.0
 10
63.30329345824569
 20
109.018086207616
 30
0.0
 10
63.14252179128386
 20
108.564275439372
 30
0.0
 10
63.06128461700815
 20
108.3417230274194
 30
0.0
 10
62.97718599711965
 20
108.1338014110219
 30
0.0
  0
SPLINE
  5
105
330
1F
100
AcDbEntity
  8
0
  6
Continuous
 62
     7
370
    15
100
AcDbSpline
210
0.0
220
0.0
230
1.0
 70
     8
 71
     3
 72
    10
 73
     6
 74
     0
 42
0.000000001
 43
0.00000001
 40
0.0
 40
0.0
 40
0.0
 40
0.0
 40
0.5000000000000001
 40
0.5000000000000001
 40
1.0
 40
1.0
 40
1.0
 40
1.0
 10
59.79342222541003
 20
109.4842241925731
 30
0.0
 10
60.00292679746374
 20
109.2501085668386
 30
0.0
 10
60.2136378814748
 20
109.0180517935251
 30
0.0
 10
60.64027259956362
 20
108.5641876273624
 30
0.0
 10
60.85615745174307
 20
108.3413325515069
 30
0.0
 10
61.07888052304696
 20
108.1338014110219
 30
0.0
  0
LINE
  5
106
330
1F
100
AcDbEntity
  8
0
  6
Continuous
 62
     7
370
    15
100
AcDbLine
 10
61.0788805281
 20
108.1338014617
 30
0.0
 11
59.3954411089
 21
108.1338014617
 31
0.0
  0
SPLINE
  5
107
330
1F
100
AcDbEntity
  8
0
  6
Continuous
 62
     7
370
    15
100
AcDbSpline
210
0.0
220
0.0
230
1.0
 70
     8
 71
     3
 72
     8
 73
     4
 74
     0
 42
0.000000001
 43
0.00000001
 40
0.0
 40
0.0
 40
0.0
 40
0.0
 40
1.0
 40
1.0
 40
1.0
 40
1.0
 10
59.39544112545433
 20
108.1338014110219
 30
0.0
 10
58.8194569928127
 20
108.5715541327102
 30
0.0
 10
58.25776548892975
 20
109.0272853215581
 30
0.0
 10
57.69703407539926
 20
109.484224192573
 30
0.0
  0
SPLINE
  5
108
330
1F
100
AcDbEntity
  8
0
  6
Continuous
 62
     7
370
    15
100
AcDbSpline
210
0.0
220
0.0
230
1.0
 70
     8
 71
     3
 72
     8
 73
     4
 74
     0
 42
0.000000001
 43
0.00000001
 40
0.0
 40
0.0
 40
0.0
 40
0.0
 40
1.0
 40
1.0
 40
1.0
 40
1.0
 10
59.37753852398647
 20
108.2235517556746
 30
0.0
 10
58.82533667430705
 20
108.6286421502263
 30
0.0
 10
58.28992605261655
 20
109.0553313093725
 30
0.0
 10
57.75622864155238
 20
109.484224192573
 30
0.0
  0
SPLINE
  5
109
330
1F
100
AcDbEntity
  8
0
  6
Continuous
 62
     7
370
    15
100
AcDbSpline
210
0.0
220
0.0
230
1.0
 70
     8
 71
     3
 72
    10
 73
     6
 74
     0
 42
0.000000001
 43
0.00000001
 40
0.0
 40
0.0
 40
0.0
 40
0.0
 40
0.5000000000000001
 40
0.5000000000000001
 40
1.0
 40
1.0
 40
1.0
 40
1.0
 10
59.2033237944801
 20
109.4842241925731
 30
0.0
 10
59.23112244040463
 20
109.2518371305036
 30
0.0
 10
59.25927727033315
 20
109.0240166774274
 30
0.0
 10
59.31690298231884
 20
108.5941538774818
 30
0.0
 10
59.34628682244087
 20
108.3904646108776
 30
0.0
 10
59.37753852398647
 20
108.2235517556746
 30
0.0
  0
LINE
  5
10A
330
1F
100
AcDbEntity
  8
0
  6
Continuous
 62
     7
370
    15
100
AcDbLine
 10
59.343632449
 20
108.4352519526
 30
0.0
 11
57.9846510883
 21
109.4616960897
 31
0.0
  0
SPLINE
  5
10B
330
1F
100
AcDbEntity
  8
0
  6
Continuous
 62
     7
370
    15
100
AcDbSpline
210
0.0
220
0.0
230
1.0
 70
     8
 71
     3
 72
    12
 73
     8
 74
     0
 42
0.000000001
 43
0.00000001
 40
0.0
 40
0.0
 40
0.0
 40
0.0
 40
0.5000000000000002
 40
0.5000000000000002
 40
0.7500000000000001
 40
0.7500000000000001
 40
1.0
 40
1.0
 40
1.0
 40
1.0
 10
57.75622864155244
 20
109.4842241925731
 30
0.0
 10
57.90234106974496
 20
109.4597273258244
 30
0.0
 10
58.09774210677534
 20
109.4473297902259
 30
0.0
 10
58.4634520526867
 20
109.4472073896138
 30
0.0
 10
58.59822559885876
 20
109.4503339342711
 30
0.0
 10
58.88602201189162
 20
109.4627283130759
 30
0.0
 10
59.03971467437299
 20
109.4719740602478
 30
0.0
 10
59.20332379448009
 20
109.4842241925731
 30
0.0
  0
SPLINE
  5
10C
330
1F
100
AcDbEntity
  8
0
  6
Continuous
 62
     7
370
    15
100
AcDbSpline
210
0.0
220
0.0
230
1.0
 70
     8
 71
     3
 72
     8
 73
     4
 74
     0
 42
0.000000001
 43
0.00000001
 40
0.0
 40
0.0
 40
0.0
 40
0.0
 40
1.0
 40
1.0
 40
1.0
 40
1.0
 10
63.13005925674239
 20
108.5345857420257
 30
0.0
 10
63.32299035425184
 20
108.8509647206115
 30
0.0
 10
63.5154689929735
 20
109.1682291898738
 30
0.0
 10
63.7086290546425
 20
109.4841600710107
 30
0.0
  0
SPLINE
  5
10D
330
1F
100
AcDbEntity
  8
0
  6
Continuous
 62
     7
370
    15
100
AcDbSpline
210
0.0
220
0.0
230
1.0
 70
     8
 71
     3
 72
     8
 73
     4
 74
     0
 42
0.000000001
 43
0.00000001
 40
0.0
 40
0.0
 40
0.0
 40
0.0
 40
1.0
 40
1.0
 40
1.0
 40
1.0
 10
62.97718599711964
 20
108.1338014110219
 30
0.0
 10
63.25622552503597
 20
108.5715542436273
 30
0.0
 10
63.52834078744382
 20
109.0272853850907
 30
0.0
 10
63.7999909226683
 20
109.484224192573
 30
0.0
  0
LINE
  5
10E
330
1F
100
AcDbEntity
  8
0
  6
Continuous
 62
     7
370
    15
100
AcDbLine
 10
63.3728008471
 20
108.1338014617
 30
0.0
 11
62.9771859605
 21
108.1338014617
 31
0.0
  0
SPLINE
  5
10F
330
1F
100
AcDbEntity
  8
0
  6
Continuous
 62
     7
370
    15
100
AcDbSpline
210
0.0
220
0.0
230
1.0
 70
     8
 71
     3
 72
     8
 73
     4
 74
     0
 42
0.000000001
 43
0.00000001
 40
0.0
 40
0.0
 40
0.0
 40
0.0
 40
1.0
 40
1.0
 40
1.0
 40
1.0
 10
63.16295127024176
 20
108.2235517556746
 30
0.0
 10
63.43675052302731
 20
108.6286420156552
 30
0.0
 10
63.7022242793297
 20
109.0553312277597
 30
0.0
 10
63.96684858074553
 20
109.484224192573
 30
0.0
  0
SPLINE
  5
110
330
1F
100
AcDbEntity
  8
0
  6
Continuous
 62
     7
370
    15
100
AcDbSpline
210
0.0
220
0.0
230
1.0
 70
     8
 71
     3
 72
    10
 73
     6
 74
     0
 42
0.000000001
 43
0.00000001
 40
0.0
 40
0.0
 40
0.0
 40
0.0
 40
0.5
 40
0.5
 40
1.0
 40
1.0
 40
1.0
 40
1.0
 10
64.9706799887037
 20
109.4842241925731
 30
0.0
 10
64.68139498412566
 20
109.2511652138091
 30
0.0
 10
64.38837454755591
 20
109.0227115625025
 30
0.0
 10
63.79014256888196
 20
108.592801491287
 30
0.0
 10
63.48544254083021
 20
108.3895431965852
 30
0.0
 10
63.16295127024176
 20
108.2235517556746
 30
0.0
  0
LINE
  5
111
330
1F
100
AcDbEntity
  8
0
  6
Continuous
 62
     7
370
    15
100
AcDbLine
 10
64.6975252531
 20
109.4491865649
 30
0.0
 11
63.3848973304
 21
108.559989573
 31
0.0
  0
SPLINE
  5
112
330
1F
100
AcDbEntity
  8
0
  6
Continuous
 62
     7
370
    15
100
AcDbSpline
210
0.0
220
0.0
230
1.0
 70
     8
 71
     3
 72
    12
 73
     8
 74
     0
 42
0.000000001
 43
0.00000001
 40
0.0
 40
0.0
 40
0.0
 40
0.0
 40
0.5
 40
0.5
 40
0.7500000000000001
 40
0.7500000000000001
 40
1.0
 40
1.0
 40
1.0
 40
1.0
 10
63.96684858074548
 20
109.4842241925731
 30
0.0
 10
64.233122698259
 20
109.4597298629309
 30
0.0
 10
64.45067102722504
 20
109.4473302584189
 30
0.0
 10
64.70519323650149
 20
109.4472071622832
 30
0.0
 10
64.77791339036328
 20
109.4503337193668
 30
0.0
 10
64.89484478629285
 20
109.462727558207
 30
0.0
 10
64.9396683851701
 20
109.4719732008996
 30
0.0
 10
64.9706799887037
 20
109.4842241925731
 30
0.0
  0
SPLINE
  5
113
330
1F
100
AcDbEntity
  8
0
  6
Continuous
 62
     7
370
    15
100
AcDbSpline
210
0.0
220
0.0
230
1.0
 70
     8
 71
     3
 72
     8
 73
     4
 74
     0
 42
0.000000001
 43
0.00000001
 40
0.0
 40
0.0
 40
0.0
 40
0.0
 40
1.0
 40
1.0
 40
1.0
 40
1.0
 10
62.93803577270436
 20
73.5858409090773
 30
0.0
 10
62.95309782693342
 20
73.62326808022924
 30
0.0
 10
62.9678819070912
 20
73.66000452712807
 30
0.0
 10
62.98224959415511
 20
73.69570628962477
 30
0.0
  0
SPLINE
  5
114
330
1F
100
AcDbEntity
  8
0
  6
Continuous
 62
     7
370
    15
100
AcDbSpline
210
0.0
220
0.0
230
1.0
 70
     8
 71
     3
 72
     8
 73
     4
 74
     0
 42
0.000000001
 43
0.00000001
 40
0.0
 40
0.0
 40
0.0
 40
0.0
 40
1.0
 40
1.0
 40
1.0
 40
1.0
 10
61.88487165788
 20
73.84753135485529
 30
0.0
 10
62.25523625487023
 20
73.85210605613841
 30
0.0
 10
62.62184671090642
 20
73.78347718422067
 30
0.0
 10
62.98224959415214
 20
73.6957062896234
 30
0.0
  0
SPLINE
  5
115
330
1F
100
AcDbEntity
  8
0
  6
Continuous
 62
     7
370
    15
100
AcDbSpline
210
0.0
220
0.0
230
1.0
 70
     8
 71
     3
 72
    14
 73
    10
 74
     0
 42
0.000000001
 43
0.00000001
 40
0.0
 40
0.0
 40
0.0
 40
0.0
 40
0.0656673895755277
 40
0.2194216259065589
 40
0.3776380053478112
 40
0.531342601387846
 40
0.6895010358808683
 40
0.8432507021187626
 40
1.0
 40
1.0
 40
1.0
 40
1.0
 10
61.88487164775837
 20
73.8475315436088
 30
0.0
 10
61.91420667228677
 20
73.8560835983794
 30
0.0
 10
62.01222699591524
 20
73.88465951368133
 30
0.0
 10
62.16783430695309
 20
73.93371340551278
 30
0.0
 10
62.33395994170483
 20
73.99439355582932
 30
0.0
 10
62.46990497023853
 20
74.05600682654091
 30
0.0
 10
62.56844469196702
 20
74.11674375023763
 30
0.0
 10
62.6319001608857
 20
74.1775789533054
 30
0.0
 10
62.63964434942974
 20
74.21813615203747
 30
0.0
 10
62.64355385077182
 20
74.23861065649618
 30
0.0
  0
SPLINE
  5
116
330
1F
100
AcDbEntity
  8
0
  6
Continuous
 62
     7
370
    15
100
AcDbSpline
210
0.0
220
0.0
230
1.0
 70
     8
 71
     3
 72
    23
 73
    19
 74
     0
 42
0.000000001
 43
0.00000001
 40
0.0
 40
0.0
 40
0.0
 40
0.0
 40
0.0509455902957625
 40
0.1175737276425717
 40
0.186132641894301
 40
0.2527826764246601
 40
0.3213669354207886
 40
0.3879930379656549
 40
0.456549469305675
 40
0.5231988911835562
 40
0.5917826055713006
 40
0.6584078980591056
 40
0.726963571962701
 40
0.7936117890254011
 40
0.862194238975078
 40
0.9288206216308279
 40
0.9973775809879886
 40
0.9999999999999999
 40
0.9999999999999999
 40
0.9999999999999999
 40
0.9999999999999999
 10
60.15568915621373
 20
75.53594486558069
 30
0.0
 10
60.1878213947961
 20
75.55122430987147
 30
0.0
 10
60.26197711751313
 20
75.58648665958899
 30
0.0
 10
60.41760652314889
 20
75.64257377729139
 30
0.0
 10
60.60851557268983
 20
75.70362080375833
 30
0.0
 10
60.8233352537693
 20
75.76472116585991
 30
0.0
 10
61.05011037525416
 20
75.82528205854219
 30
0.0
 10
61.28632246669928
 20
75.88676270410829
 30
0.0
 10
61.52059012658987
 20
75.94773732192945
 30
0.0
 10
61.75024609817946
 20
76.00878255207385
 30
0.0
 10
61.96402260156507
 20
76.069401232614
 30
0.0
 10
62.15920494100484
 20
76.13095293205853
 30
0.0
 10
62.32665408670533
 20
76.19182304999275
 30
0.0
 10
62.46393409019966
 20
76.25284919073188
 30
0.0
 10
62.56586227641163
 20
76.31353672137982
 30
0.0
 10
62.62534461069025
 20
76.37513443218364
 30
0.0
 10
62.65000613757076
 20
76.41663516798339
 30
0.0
 10
62.6432437347059
 20
76.4379860760434
 30
0.0
 10
62.64299459156576
 20
76.43877269470323
 30
0.0
  0
SPLINE
  5
117
330
1F
100
AcDbEntity
  8
0
  6
Continuous
 62
     7
370
    15
100
AcDbSpline
210
0.0
220
0.0
230
1.0
 70
     8
 71
     3
 72
    23
 73
    19
 74
     0
 42
0.000000001
 43
0.00000001
 40
0.0
 40
0.0
 40
0.0
 40
0.0
 40
0.0482611512470217
 40
0.1148709658084456
 40
0.1834136544346211
 40
0.2500031561243041
 40
0.318522474275821
 40
0.3851336305094956
 40
0.4536779234481916
 40
0.5202652540208933
 40
0.5887819247990739
 40
0.6553924551766872
 40
0.7239363061824577
 40
0.7905226893363574
 40
0.8590382764702617
 40
0.925647825196183
 40
0.9941903990731417
 40
1.0
 40
1.0
 40
1.0
 40
1.0
 10
60.15488880087617
 20
77.7353674336635
 30
0.0
 10
60.18497570422135
 20
77.74995862473511
 30
0.0
 10
60.25658841042796
 20
77.78468850927753
 30
0.0
 10
60.40901551355289
 20
77.83980856157702
 30
0.0
 10
60.59886176777239
 20
77.90031595207516
 30
0.0
 10
60.8127647609477
 20
77.96170629418053
 30
0.0
 10
61.03884898360356
 20
78.02276130768651
 30
0.0
 10
61.27499989449773
 20
78.08386769901894
 30
0.0
 10
61.50956233459213
 20
78.14442557174655
 30
0.0
 10
61.7395677736036
 20
78.20589594244564
 30
0.0
 10
61.95404628030582
 20
78.26688089210923
 30
0.0
 10
62.15049634478768
 20
78.32792767072117
 30
0.0
 10
62.31936349486033
 20
78.38854182432557
 30
0.0
 10
62.45816018367749
 20
78.45008749621462
 30
0.0
 10
62.56176439370636
 20
78.51096394226035
 30
0.0
 10
62.62350655114702
 20
78.57200451234056
 30
0.0
 10
62.64931138370038
 20
78.61437100757558
 30
0.0
 10
62.64268207412243
 20
78.63682971611308
 30
0.0
 10
62.64216408465985
 20
78.63858455562223
 30
0.0
  0
SPLINE
  5
118
330
1F
100
AcDbEntity
  8
0
  6
Continuous
 62
     7
370
    15
100
AcDbSpline
210
0.0
220
0.0
230
1.0
 70
     8
 71
     3
 72
    23
 73
    19
 74
     0
 42
0.000000001
 43
0.00000001
 40
0.0
 40
0.0
 40
0.0
 40
0.0
 40
0.0455336893167331
 40
0.1120913169128958
 40
0.180578112829763
 40
0.2471527480435643
 40
0.3156591822729457
 40
0.3822139026400506
 40
0.4506974418221562
 40
0.517273617971103
 40
0.585781834234777
 40
0.652334286647123
 40
0.720815180153365
 40
0.7873908354848963
 40
0.8558987793093029
 40
0.9224501507376553
 40
0.9909297994625677
 40
1.0
 40
1.0
 40
1.0
 40
1.0
 10
60.15420404595319
 20
79.93496136510004
 30
0.0
 10
60.18228884868203
 20
79.94863172332568
 30
0.0
 10
60.25142584527406
 20
79.98228435457906
 30
0.0
 10
60.40057658886765
 20
80.03666841311191
 30
0.0
 10
60.58904450504168
 20
80.09773694619489
 30
0.0
 10
60.8021541104717
 20
80.15895446516058
 30
0.0
 10
61.02786165708095
 20
80.21945941914716
 30
0.0
 10
61.26370735861141
 20
80.28084105482571
 30
0.0
 10
61.4982454156842
 20
80.34189856017827
 30
0.0
 10
61.72885828847758
 20
80.40301419097338
 30
0.0
 10
61.94425864631352
 20
80.46356677728714
 30
0.0
 10
62.14168397894645
 20
80.52502752091623
 30
0.0
 10
62.31182804728915
 20
80.58602226697714
 30
0.0
 10
62.45235622494963
 20
80.64707227404533
 30
0.0
 10
62.55766861364906
 20
80.70768651746275
 30
0.0
 10
62.6215138061947
 20
80.76920664269069
 30
0.0
 10
62.64859450212035
 20
80.81277695168212
 30
0.0
 10
62.64215694341356
 20
80.8360589325599
 30
0.0
 10
62.64140400902364
 20
80.83878198408712
 30
0.0
  0
SPLINE
  5
119
330
1F
100
AcDbEntity
  8
0
  6
Continuous
 62
     7
370
    15
100
AcDbSpline
210
0.0
220
0.0
230
1.0
 70
     8
 71
     3
 72
    23
 73
    19
 74
     0
 42
0.000000001
 43
0.00000001
 40
0.0
 40
0.0
 40
0.0
 40
0.0
 40
0.0415226596533631
 40
0.1081480585419449
 40
0.1767060130279709
 40
0.2433181518850876
 40
0.3118611168269739
 40
0.3784898583483401
 40
0.44705174788681
 40
0.5136610663424419
 40
0.5822006987061289
 40
0.6488311301266384
 40
0.7173951250794449
 40
0.7840020571182703
 40
0.852538905806688
 40
0.9191689670214598
 40
0.9877328554370993
 40
1.0
 40
1.0
 40
1.0
 40
1.0
 10
60.15598624811503
 20
82.13561141633619
 30
0.0
 10
60.18128352982175
 20
82.1481518040107
 30
0.0
 10
60.24717169608591
 20
82.18081393576439
 30
0.0
 10
60.39212721488884
 20
82.23404297517
 30
0.0
 10
60.5794494499406
 20
82.29450340604346
 30
0.0
 10
60.7916782770259
 20
82.35580595281742
 30
0.0
 10
61.01665417863448
 20
82.41687024919497
 30
0.0
 10
61.25234204904553
 20
82.47810217528465
 30
0.0
 10
61.48717141394546
 20
82.53859955000918
 30
0.0
 10
61.71814221910805
 20
82.59997672368046
 30
0.0
 10
61.93418233341924
 20
82.66103544998566
 30
0.0
 10
62.13281765234269
 20
82.72216105236407
 30
0.0
 10
62.30439990068655
 20
82.78270692650327
 30
0.0
 10
62.44643129323411
 20
82.84416307569134
 30
0.0
 10
62.55339350481476
 20
82.90515951738652
 30
0.0
 10
62.61944506812829
 20
82.96622934556552
 30
0.0
 10
62.64787173044819
 20
83.01047881350705
 30
0.0
 10
62.64169627291806
 20
83.03487307667045
 30
0.0
 10
62.64075906814072
 20
83.03857521855463
 30
0.0
  0
SPLINE
  5
11A
330
1F
100
AcDbEntity
  8
0
  6
Continuous
 62
     7
370
    15
100
AcDbSpline
210
0.0
220
0.0
230
1.0
 70
     8
 71
     3
 72
    23
 73
    19
 74
     0
 42
0.000000001
 43
0.00000001
 40
0.0
 40
0.0
 40
0.0
 40
0.0
 40
0.0399673335018547
 40
0.1064661911524059
 40
0.1748930684984285
 40
0.2414011216929418
 40
0.309838423988407
 40
0.376334098087398
 40
0.4447571959464502
 40
0.5112687293910587
 40
0.5797100560995129
 40
0.6462027508812416
 40
0.7146223991505617
 40
0.7811359235378245
 40
0.849579508229981
 40
0.9160698669469425
 40
0.9844867849130781
 40
1.0
 40
1.0
 40
1.0
 40
1.0
 10
60.15284710896197
 20
84.33412687623134
 30
0.0
 10
60.17694156347246
 20
84.34614235291166
 30
0.0
 10
60.24112509974735
 20
84.37814954290782
 30
0.0
 10
60.38381090902661
 20
84.43078713367413
 30
0.0
 10
60.56977240901235
 20
84.491818552881
 30
0.0
 10
60.78110763694117
 20
84.5531840501261
 30
0.0
 10
61.00567304422554
 20
84.61364751091352
 30
0.0
 10
61.24108205526133
 20
84.67494352762476
 30
0.0
 10
61.47584454741381
 20
84.73600662710645
 30
0.0
 10
61.70732988805761
 20
84.79724839676658
 30
0.0
 10
61.924289896902
 20
84.85774299223459
 30
0.0
 10
62.1239078886551
 20
84.9191114465585
 30
0.0
 10
62.29671591003509
 20
84.98017290332585
 30
0.0
 10
62.44043776138151
 20
85.04130664694095
 30
0.0
 10
62.54913602871915
 20
85.10185158262861
 30
0.0
 10
62.61723743713754
 20
85.16328248370323
 30
0.0
 10
62.64711748876432
 20
85.20889389628061
 30
0.0
 10
62.64126659059628
 20
85.234124122619
 30
0.0
 10
62.64018514060411
 20
85.23878754818071
 30
0.0
  0
SPLINE
  5
11B
330
1F
100
AcDbEntity
  8
0
  6
Continuous
 62
     7
370
    15
100
AcDbSpline
210
0.0
220
0.0
230
1.0
 70
     8
 71
     3
 72
    23
 73
    19
 74
     0
 42
0.000000001
 43
0.00000001
 40
0.0
 40
0.0
 40
0.0
 40
0.0
 40
0.0361848631625671
 40
0.1027270163834669
 40
0.1711988257188164
 40
0.2377370066000726
 40
0.306204357093925
 40
0.3727509177246778
 40
0.4412278767931833
 40
0.5077627574247862
 40
0.5762263098956746
 40
0.6427764392714966
 40
0.7112575506690483
 40
0.7777895099190754
 40
0.8462495480137499
 40
0.9128019242727063
 40
0.9812854429763649
 40
1.0
 40
1.0
 40
1.0
 40
1.0
 10
60.15404118091795
 20
86.53454037153352
 30
0.0
 10
60.17559157247822
 20
86.54546976504663
 30
0.0
 10
60.23677205606705
 20
86.57649776649127
 30
0.0
 10
60.37548507691132
 20
86.62825674241259
 30
0.0
 10
60.56023909933121
 20
86.68870733022251
 30
0.0
 10
60.77072664191241
 20
86.74993057784444
 30
0.0
 10
60.99454501428178
 20
86.81095112096784
 30
0.0
 10
61.22969366119155
 20
86.87232834852371
 30
0.0
 10
61.46471213546421
 20
86.93279135484661
 30
0.0
 10
61.6965833362308
 20
86.99407888801319
 30
0.0
 10
61.91414078988259
 20
87.05514115803635
 30
0.0
 10
62.11488965617488
 20
87.11639299273718
 30
0.0
 10
62.28913778136391
 20
87.17688365189666
 30
0.0
 10
62.43436482040742
 20
87.23824789207205
 30
0.0
 10
62.54468770520667
 20
87.29930613820218
 30
0.0
 10
62.61494255189665
 20
87.36046678534919
 30
0.0
 10
62.6463582580482
 20
87.40659554968069
 30
0.0
 10
62.6408968516806
 20
87.43292752042817
 30
0.0
 10
62.63972471800628
 20
87.43857892000307
 30
0.0
  0
SPLINE
  5
11C
330
1F
100
AcDbEntity
  8
0
  6
Continuous
 62
     7
370
    15
100
AcDbSpline
210
0.0
220
0.0
230
1.0
 70
     8
 71
     3
 72
    23
 73
    19
 74
     0
 42
0.000000001
 43
0.00000001
 40
0.0
 40
0.0
 40
0.0
 40
0.0
 40
0.0327997100732169
 40
0.0993507854579134
 40
0.1678320061840886
 40
0.2343832331891374
 40
0.3028642338558635
 40
0.3694120401648622
 40
0.4378894625574967
 40
0.5044449314388748
 40
0.572931098107842
 40
0.6394756243569094
 40
0.7079492205100214
 40
0.7745085050301619
 40
0.8429989247371171
 40
0.9095404984269074
 40
0.9780105091462432
 40
1.0
 40
1.0
 40
1.0
 40
1.0
 10
60.15434129961762
 20
88.73479740464319
 30
0.0
 10
60.17365353868588
 20
88.74465885784095
 30
0.0
 10
60.23215058381524
 20
88.77452933897523
 30
0.0
 10
60.36736836283852
 20
88.8249319369224
 30
0.0
 10
60.55069379265669
 20
88.88588951736978
 30
0.0
 10
60.76021959581983
 20
88.94739480892018
 30
0.0
 10
60.9835620905918
 20
89.00785499793732
 30
0.0
 10
61.21846888939996
 20
89.06906786109084
 30
0.0
 10
61.45340187735768
 20
89.13008528893413
 30
0.0
 10
61.68568468679593
 20
89.19147221369361
 30
0.0
 10
61.9041332268871
 20
89.25193530477341
 30
0.0
 10
62.10588927425245
 20
89.3132143019874
 30
0.0
 10
62.28132679105211
 20
89.37427541709852
 30
0.0
 10
62.4281849024445
 20
89.43553879987914
 30
0.0
 10
62.54025901819053
 20
89.4960307230403
 30
0.0
 10
62.61253062365546
 20
89.55736894787866
 30
0.0
 10
62.64556044851646
 20
89.60497941424644
 30
0.0
 10
62.64055657314775
 20
89.63217482283248
 30
0.0
 10
62.63934019819829
 20
89.6387856616937
 30
0.0
  0
SPLINE
  5
11D
330
1F
100
AcDbEntity
  8
0
  6
Continuous
 62
     7
370
    15
100
AcDbSpline
210
0.0
220
0.0
230
1.0
 70
     8
 71
     3
 72
    23
 73
    19
 74
     0
 42
0.000000001
 43
0.00000001
 40
0.0
 40
0.0
 40
0.0
 40
0.0
 40
0.0288258628508085
 40
0.0954290346379759
 40
0.1639630506574554
 40
0.2305715655277495
 40
0.2991117906333501
 40
0.3657194334007774
 40
0.4342586052779434
 40
0.5008637590390992
 40
0.569400107251045
 40
0.636012211762496
 40
0.7045565859834404
 40
0.7711584813881561
 40
0.8396908647598866
 40
0.9063070141254888
 40
0.9748546214556113
 40
1.0
 40
1.0
 40
1.0
 40
1.0
 10
60.15570463945154
 20
90.93537108742822
 30
0.0
 10
60.17247526581576
 20
90.94405849583113
 30
0.0
 10
60.22799501530237
 20
90.97281846744707
 30
0.0
 10
60.35919889018192
 20
91.02244158329603
 30
0.0
 10
60.5412162076713
 20
91.08292845431872
 30
0.0
 10
60.74992993061313
 20
91.14408130855738
 30
0.0
 10
60.9725292774886
 20
91.2050212171962
 30
0.0
 10
61.20707482862732
 20
91.26653664436401
 30
0.0
 10
61.44220493513252
 20
91.32699859206882
 30
0.0
 10
61.67490935486626
 20
91.38820680531747
 30
0.0
 10
61.89393601204397
 20
91.44921650130061
 30
0.0
 10
62.09673089820624
 20
91.51061553528929
 30
0.0
 10
62.27359067302626
 20
91.57108445688758
 30
0.0
 10
62.42196933892006
 20
91.63233000881529
 30
0.0
 10
62.53565332443527
 20
91.69349577720902
 30
0.0
 10
62.60999935874543
 20
91.75435627641315
 30
0.0
 10
62.64477164036675
 20
91.80392239417034
 30
0.0
 10
62.64024834091088
 20
91.83045722282617
 30
0.0
 10
62.63903437514785
 20
91.83757865571609
 30
0.0
  0
SPLINE
  5
11E
330
1F
100
AcDbEntity
  8
0
  6
Continuous
 62
     7
370
    15
100
AcDbSpline
210
0.0
220
0.0
230
1.0
 70
     8
 71
     3
 72
    23
 73
    19
 74
     0
 42
0.000000001
 43
0.00000001
 40
0.0
 40
0.0
 40
0.0
 40
0.0
 40
0.052473354101658
 40
0.1143243067706375
 40
0.1779309527301361
 40
0.2404616912947082
 40
0.304777276558442
 40
0.3678314678748776
 40
0.4326756931128067
 40
0.4964174839490372
 40
0.5619798952430425
 40
0.6262382665682863
 40
0.6923211325741662
 40
0.757274127032657
 40
0.8240829845770969
 40
0.8895488188334754
 40
0.956873886129359
 40
0.9999999999999999
 40
0.9999999999999999
 40
0.9999999999999999
 40
0.9999999999999999
 10
60.10826458089981
 20
92.92619043731321
 30
0.0
 10
60.13942940776212
 20
92.93965115487721
 30
0.0
 10
60.20732857844899
 20
92.96897817676262
 30
0.0
 10
60.35348515099248
 20
93.01420901567306
 30
0.0
 10
60.53224183266481
 20
93.06207679752085
 30
0.0
 10
60.7375380373974
 20
93.11043373276834
 30
0.0
 10
60.95940889757674
 20
93.15801278295585
 30
0.0
 10
61.1949300111587
 20
93.20596921827016
 30
0.0
 10
61.4338738406851
 20
93.25383623152037
 30
0.0
 10
61.67305789246955
 20
93.30213808798504
 30
0.0
 10
61.90193258433305
 20
93.34967249508283
 30
0.0
 10
62.11692807448448
 20
93.39761510675712
 30
0.0
 10
62.30862864183582
 20
93.44549493735354
 30
0.0
 10
62.47414044940052
 20
93.49373248842036
 30
0.0
 10
62.60602009281143
 20
93.54122423399383
 30
0.0
 10
62.70122445865903
 20
93.58916181695852
 30
0.0
 10
62.7517858283248
 20
93.6315301257406
 30
0.0
 10
62.76021693637282
 20
93.65791430167192
 30
0.0
 10
62.76350889687422
 20
93.66821611070264
 30
0.0
  0
SPLINE
  5
11F
330
1F
100
AcDbEntity
  8
0
  6
Continuous
 62
     7
370
    15
100
AcDbSpline
210
0.0
220
0.0
230
1.0
 70
     8
 71
     3
 72
    21
 73
    17
 74
     0
 42
0.000000001
 43
0.00000001
 40
0.0
 40
0.0
 40
0.0
 40
0.0
 40
0.0724405089867103
 40
0.1448814834104875
 40
0.2173366277543319
 40
0.2949999899718428
 40
0.3726519766343196
 40
0.4503146439669509
 40
0.527983787093982
 40
0.6056365589169503
 40
0.6832934625332758
 40
0.7609665965509187
 40
0.8386204316682441
 40
0.9162739256825668
 40
0.9939483917760054
 40
1.0
 40
1.0
 40
1.0
 40
1.0
 10
59.7484992105234
 20
75.2427328541242
 30
0.0
 10
59.86167229513735
 20
75.26527492715002
 30
0.0
 10
60.08801919151292
 20
75.3103592180366
 30
0.0
 10
60.48902388810413
 20
75.37799516668626
 30
0.0
 10
60.92565543521322
 20
75.44722748539712
 30
0.0
 10
61.38885679784126
 20
75.51811824475182
 30
0.0
 10
61.85854999457715
 20
75.5906375297372
 30
0.0
 10
62.30345842481644
 20
75.66314614384684
 30
0.0
 10
62.70620881952464
 20
75.73564288430715
 30
0.0
 10
63.04878148898278
 20
75.80816249800063
 30
0.0
 10
63.3144915366272
 20
75.88068292802564
 30
0.0
 10
63.49496619087618
 20
75.9531687509886
 30
0.0
 10
63.58490739248904
 20
76.02569159633738
 30
0.0
 10
63.56429745044166
 20
76.09821674527623
 30
0.0
 10
63.50885267532076
 20
76.14841472865535
 30
0.0
 10
63.43627916930109
 20
76.17447759448925
 30
0.0
 10
63.43103365373793
 20
76.17636138343443
 30
0.0
  0
SPLINE
  5
120
330
1F
100
AcDbEntity
  8
0
  6
Continuous
 62
     7
370
    15
100
AcDbSpline
210
0.0
220
0.0
230
1.0
 70
     8
 71
     3
 72
    27
 73
    23
 74
     0
 42
0.000000001
 43
0.00000001
 40
0.0
 40
0.0
 40
0.0
 40
0.0
 40
0.0092166947119302
 40
0.0631476866771457
 40
0.1170652763741379
 40
0.1709826295783239
 40
0.2249145418620977
 40
0.2788320475486353
 40
0.3327495675141397
 40
0.386680381730651
 40
0.4406004630027156
 40
0.4945172162652271
 40
0.5484450428324698
 40
0.6023692401860046
 40
0.6562855487598678
 40
0.7102092837644819
 40
0.7641374888205461
 40
0.8180543629498731
 40
0.8719740632018814
 40
0.9259050523927567
 40
0.9798226398235638
 40
1.0
 40
1.0
 40
1.0
 40
1.0
 10
59.16515530419532
 20
77.02843399488557
 30
0.0
 10
59.15378325118839
 20
77.03256543087677
 30
0.0
 10
59.07586824341151
 20
77.06087174172389
 30
0.0
 10
59.01858821845772
 20
77.1133236714784
 30
0.0
 10
59.00524846054304
 20
77.18584849397564
 30
0.0
 10
59.10088366261973
 20
77.25837012331094
 30
0.0
 10
59.28633662392224
 20
77.33085242485858
 30
0.0
 10
59.55688464070579
 20
77.40337810676618
 30
0.0
 10
59.90382058658131
 20
77.4758967707186
 30
0.0
 10
60.30934039122347
 20
77.54838809636304
 30
0.0
 10
60.75621727898035
 20
77.62090349370843
 30
0.0
 10
61.2268776747368
 20
77.69342379804162
 30
0.0
 10
61.69992360421992
 20
77.76592340177457
 30
0.0
 10
62.15616094472279
 20
77.83842857573453
 30
0.0
 10
62.57539159317725
 20
77.91094948666336
 30
0.0
 10
62.93864959485934
 20
77.98345979246602
 30
0.0
 10
63.23346327198835
 20
78.05595364075745
 30
0.0
 10
63.44499428575355
 20
78.12847768720394
 30
0.0
 10
63.56379536760117
 20
78.20099426242545
 30
0.0
 10
63.58176790260696
 20
78.27348004614217
 30
0.0
 10
63.5369028398984
 20
78.33087973471444
 30
0.0
 10
63.45382030864664
 20
78.36409413012309
 30
0.0
 10
63.43119547103527
 20
78.37313899540534
 30
0.0
  0
SPLINE
  5
121
330
1F
100
AcDbEntity
  8
0
  6
Continuous
 62
     7
370
    15
100
AcDbSpline
210
0.0
220
0.0
230
1.0
 70
     8
 71
     3
 72
    29
 73
    25
 74
     0
 42
0.000000001
 43
0.00000001
 40
0.0
 40
0.0
 40
0.0
 40
0.0
 40
0.038304550278653
 40
0.0863025203466415
 40
0.1343134405290221
 40
0.1823136103018769
 40
0.2303124745849043
 40
0.2783159376797238
 40
0.3263253951176469
 40
0.3743235099295047
 40
0.4223216338548465
 40
0.4703310947138573
 40
0.5183345519030985
 40
0.5663334167763774
 40
0.6143336224283233
 40
0.6623445419223882
 40
0.7103425151964321
 40
0.7583414414847007
 40
0.8063482607650722
 40
0.8543550641461246
 40
0.9023539955055753
 40
0.950351964825711
 40
0.9983628870972925
 40
1.0
 40
1.0
 40
1.0
 40
1.0
 10
59.16261488904241
 20
79.22913806283105
 30
0.0
 10
59.12563184904746
 20
79.24628261756867
 30
0.0
 10
59.04230677308582
 20
79.28491035952914
 30
0.0
 10
59.00401139742972
 20
79.34503829499482
 30
0.0
 10
59.0308542758444
 20
79.40946919840762
 30
0.0
 10
59.13486668678443
 20
79.47393264088373
 30
0.0
 10
59.3128783484423
 20
79.53838825142428
 30
0.0
 10
59.55860939720797
 20
79.60284437887603
 30
0.0
 10
59.86151800612883
 20
79.66728217280091
 30
0.0
 10
60.21267974965486
 20
79.73174492124522
 30
0.0
 10
60.60153839967476
 20
79.7962076682695
 30
0.0
 10
61.01323348796299
 20
79.86064540057417
 30
0.0
 10
61.43433498474636
 20
79.92510176089645
 30
0.0
 10
61.85090861789033
 20
79.98955656249004
 30
0.0
 10
62.24805785348183
 20
80.05402307329784
 30
0.0
 10
62.61337385140627
 20
80.1184534944902
 30
0.0
 10
62.9350939601127
 20
80.18292025121194
 30
0.0
 10
63.19976707133753
 20
80.2473775243894
 30
0.0
 10
63.3999672577046
 20
80.31182475945332
 30
0.0
 10
63.53005677444835
 20
80.37627201862577
 30
0.0
 10
63.5868145073017
 20
80.44072934773502
 30
0.0
 10
63.55559392648233
 20
80.50519579330332
 30
0.0
 10
63.50430822031168
 20
80.54888395261699
 30
0.0
 10
63.44485765166664
 20
80.57110248952415
 30
0.0
 10
63.44289730635467
 20
80.57183513187994
 30
0.0
  0
SPLINE
  5
122
330
1F
100
AcDbEntity
  8
0
  6
Continuous
 62
     7
370
    15
100
AcDbSpline
210
0.0
220
0.0
230
1.0
 70
     8
 71
     3
 72
    29
 73
    25
 74
     0
 42
0.000000001
 43
0.00000001
 40
0.0
 40
0.0
 40
0.0
 40
0.0
 40
0.0321581515637439
 40
0.080192761640694
 40
0.1282194932459309
 40
0.1762452575682253
 40
0.2242839988392623
 40
0.2723119627078558
 40
0.3203386258060083
 40
0.3683698789079466
 40
0.4164071636044929
 40
0.4644330744732893
 40
0.5124589892975394
 40
0.5604962568805725
 40
0.6085275202953856
 40
0.6565541783697252
 40
0.704582162569377
 40
0.752620887239459
 40
0.8006466587149396
 40
0.8486733920684028
 40
0.8967080007148481
 40
0.9447426141288586
 40
0.9927693395445013
 40
1.0
 40
1.0
 40
1.0
 40
1.0
 10
59.16580583301369
 20
81.4288307144605
 30
0.0
 10
59.13325105550341
 20
81.44321417739643
 30
0.0
 10
59.05206922799779
 20
81.47908220956555
 30
0.0
 10
59.00586714170228
 20
81.53642779444226
 30
0.0
 10
59.0209022330751
 20
81.60088535809597
 30
0.0
 10
59.11774050246031
 20
81.66535185856057
 30
0.0
 10
59.28608671353848
 20
81.72978307943306
 30
0.0
 10
59.52122590146776
 20
81.7942464564789
 30
0.0
 10
59.8176243364208
 20
81.85870206797
 30
0.0
 10
60.16427456842193
 20
81.9231582359636
 30
0.0
 10
60.54810449109577
 20
81.98759597473779
 30
0.0
 10
60.95724553855376
 20
82.0520587493099
 30
0.0
 10
61.37812104514651
 20
82.11652148824462
 30
0.0
 10
61.79581060053694
 20
82.1809592778543
 30
0.0
 10
62.19705579688544
 20
82.24541539788952
 30
0.0
 10
62.56768113916179
 20
82.30987105638052
 30
0.0
 10
62.89417552424113
 20
82.3743343738048
 30
0.0
 10
63.16746254161214
 20
82.43876563648139
 30
0.0
 10
63.3787692366524
 20
82.50323217844154
 30
0.0
 10
63.51711932323521
 20
82.56768947114628
 30
0.0
 10
63.58205841773114
 20
82.63213676979669
 30
0.0
 10
63.56457938596001
 20
82.69658386152182
 30
0.0
 10
63.51540437040703
 20
82.74279189163387
 30
0.0
 10
63.45105134538397
 20
82.767512535384
 30
0.0
 10
63.44263048243705
 20
82.77074733519186
 30
0.0
  0
SPLINE
  5
123
330
1F
100
AcDbEntity
  8
0
  6
Continuous
 62
     7
370
    15
100
AcDbSpline
210
0.0
220
0.0
230
1.0
 70
     8
 71
     3
 72
    29
 73
    25
 74
     0
 42
0.000000001
 43
0.00000001
 40
0.0
 40
0.0
 40
0.0
 40
0.0
 40
0.0254677307620278
 40
0.0732058411119671
 40
0.1209517838644348
 40
0.1686977314435297
 40
0.2164358409307216
 40
0.2641729930650491
 40
0.3119230128931402
 40
0.3596623605340826
 40
0.4074004019040158
 40
0.4551430093633289
 40
0.5028915973948418
 40
0.5506288974855881
 40
0.5983661908570611
 40
0.6461147804367006
 40
0.693857391210521
 40
0.7415954345162742
 40
0.7893347756333232
 40
0.8370848137121707
 40
0.8848219665999585
 40
0.932560075493216
 40
0.980306022536968
 40
1.0
 40
1.0
 40
1.0
 40
1.0
 10
59.16609035206023
 20
83.62900020324815
 30
0.0
 10
59.138408475622
 20
83.64046229301843
 30
0.0
 10
59.05883817282771
 20
83.67340955205668
 30
0.0
 10
59.00982118655082
 20
83.72784581654355
 30
0.0
 10
59.0156375400849
 20
83.79229262599466
 30
0.0
 10
59.10023516181704
 20
83.85673998536481
 30
0.0
 10
59.2581337641926
 20
83.92119726742948
 30
0.0
 10
59.48702933894605
 20
83.98566380744046
 30
0.0
 10
59.77572777800589
 20
84.05009507751433
 30
0.0
 10
60.11489691468368
 20
84.11455840396488
 30
0.0
 10
60.49492432516521
 20
84.17901403919811
 30
0.0
 10
60.90199433677547
 20
84.24347018383087
 30
0.0
 10
61.32186388953284
 20
84.30790795639231
 30
0.0
 10
61.74115265432335
 20
84.37237069996515
 30
0.0
 10
62.14483943723754
 20
84.43683346491207
 30
0.0
 10
62.51968963935315
 20
84.50127122903726
 30
0.0
 10
62.85417200989024
 20
84.56572737391268
 30
0.0
 10
63.13550476446214
 20
84.63018300059356
 30
0.0
 10
63.35322510661018
 20
84.69464635224544
 30
0.0
 10
63.50233763775235
 20
84.759077612544
 30
0.0
 10
63.57925560004145
 20
84.82354405555746
 30
0.0
 10
63.57238601435748
 20
84.88800176787333
 30
0.0
 10
63.51790151012778
 20
84.93982564883248
 30
0.0
 10
63.44171791250199
 20
84.9701723198529
 30
0.0
 10
63.41947058548215
 20
84.97903423153986
 30
0.0
  0
SPLINE
  5
124
330
1F
100
AcDbEntity
  8
0
  6
Continuous
 62
     7
370
    15
100
AcDbSpline
210
0.0
220
0.0
230
1.0
 70
     8
 71
     3
 72
    27
 73
    23
 74
     0
 42
0.000000001
 43
0.00000001
 40
0.0
 40
0.0
 40
0.0
 40
0.0
 40
0.0138522791840706
 40
0.0618814040879366
 40
0.1258351954971294
 40
0.1897910052846359
 40
0.2537594667783727
 40
0.3017765917655109
 40
0.3497927517393274
 40
0.3978218761060907
 40
0.4458402388375659
 40
0.4938572993110892
 40
0.5418789550191471
 40
0.5899066177012195
 40
0.6379229256014963
 40
0.6859392440716481
 40
0.733966898434337
 40
0.7819885597493154
 40
0.8300056153184152
 40
0.8939662948815782
 40
0.9579298064862667
 40
1.0
 40
1.0
 40
1.0
 40
1.0
 10
59.14893073362294
 20
85.83619931482902
 30
0.0
 10
59.13359552578687
 20
85.84239735059157
 30
0.0
 10
59.06508952902873
 20
85.8700854407952
 30
0.0
 10
59.00863331151258
 20
85.92634086243295
 30
0.0
 10
59.01365382419388
 20
86.00519788519377
 30
0.0
 10
59.16789551129411
 20
86.09112156810043
 30
0.0
 10
59.42143581662495
 20
86.16993641772224
 30
0.0
 10
59.73296992717913
 20
86.24150495295407
 30
0.0
 10
60.06764729356875
 20
86.30597693758494
 30
0.0
 10
60.44281595567215
 20
86.370406708345
 30
0.0
 10
60.8463969593121
 20
86.43487046203896
 30
0.0
 10
61.26561395892824
 20
86.49932598284393
 30
0.0
 10
61.68551534189493
 20
86.56378214159469
 30
0.0
 10
62.09233510585176
 20
86.6282199369732
 30
0.0
 10
62.47275563005416
 20
86.69268260246
 30
0.0
 10
62.81204413246395
 20
86.75714569783783
 30
0.0
 10
63.1002818123787
 20
86.82158211049325
 30
0.0
 10
63.32870553505546
 20
86.88604344354627
 30
0.0
 10
63.50625807846744
 20
86.95761053125369
 30
0.0
 10
63.58895300897449
 20
87.03644590202026
 30
0.0
 10
63.56740712251987
 20
87.1125592020924
 30
0.0
 10
63.45782882439259
 20
87.16005940129467
 30
0.0
 10
63.41435226944271
 20
87.17890569710363
 30
0.0
  0
SPLINE
  5
125
330
1F
100
AcDbEntity
  8
0
  6
Continuous
 62
     7
370
    15
100
AcDbSpline
210
0.0
220
0.0
230
1.0
 70
     8
 71
     3
 72
    29
 73
    25
 74
     0
 42
0.000000001
 43
0.00000001
 40
0.0
 40
0.0
 40
0.0
 40
0.0
 40
0.0075831581202327
 40
0.0556025587292516
 40
0.1036232347169155
 40
0.1516546605848078
 40
0.1996731324835066
 40
0.2476925664493371
 40
0.2957198826878805
 40
0.3437471931048323
 40
0.3917666323964862
 40
0.4397850999704113
 40
0.4878165323535717
 40
0.5358372093482567
 40
0.5838565747642575
 40
0.6318805457740937
 40
0.6799105146430622
 40
0.7279291274688066
 40
0.7819305193273731
 40
0.8359462125557882
 40
0.889948585141348
 40
0.9439498361265649
 40
0.9979635344467127
 40
1.0
 40
1.0
 40
1.0
 40
1.0
 10
59.14632233192209
 20
88.03602235161891
 30
0.0
 10
59.13748786434982
 20
88.03941415269074
 30
0.0
 10
59.07271023552548
 20
88.06428410994404
 30
0.0
 10
59.02216668244063
 20
88.11065556190877
 30
0.0
 10
59.00531578044318
 20
88.17511541546791
 30
0.0
 10
59.07091949150339
 20
88.23954760349767
 30
0.0
 10
59.20872222545049
 20
88.30401389430995
 30
0.0
 10
59.41955469193486
 20
88.36847127340471
 30
0.0
 10
59.69343288671995
 20
88.43291849515913
 30
0.0
 10
60.0201665906075
 20
88.49736576455796
 30
0.0
 10
60.39023167799159
 20
88.56182305260103
 30
0.0
 10
60.79162362041387
 20
88.62628961421997
 30
0.0
 10
61.20938464726204
 20
88.69072085745661
 30
0.0
 10
61.63019803229955
 20
88.75518416299259
 30
0.0
 10
62.03959340639178
 20
88.81963996575196
 30
0.0
 10
62.42323033619048
 20
88.88409548956203
 30
0.0
 10
62.76945556208482
 20
88.94853549422125
 30
0.0
 10
63.07880143256248
 20
89.01566661946319
 30
0.0
 10
63.32967641898473
 20
89.0855207416886
 30
0.0
 10
63.50326808176628
 20
89.15800090778124
 30
0.0
 10
63.58722087422149
 20
89.23052737780114
 30
0.0
 10
63.56021065471295
 20
89.30303873451757
 30
0.0
 10
63.50212409172269
 20
89.35229828100869
 30
0.0
 10
63.43072958103961
 20
89.37736714885106
 30
0.0
 10
63.42813561071637
 20
89.37827797376741
 30
0.0
  0
SPLINE
  5
126
330
1F
100
AcDbEntity
  8
0
  6
Continuous
 62
     7
370
    15
100
AcDbSpline
210
0.0
220
0.0
230
1.0
 70
     8
 71
     3
 72
    26
 73
    22
 74
     0
 42
0.000000001
 43
0.00000001
 40
0.0
 40
0.0
 40
0.0
 40
0.0
 40
0.0079851126976942
 40
0.0625978041651759
 40
0.1171969752569283
 40
0.1717950461363625
 40
0.2264056866300969
 40
0.2810084072238599
 40
0.3356056615796626
 40
0.3902126883670362
 40
0.4448196781626681
 40
0.4994169645297148
 40
0.5540196816021167
 40
0.6086302997609393
 40
0.6700229333914942
 40
0.7314227669577714
 40
0.792829497499238
 40
0.8542304928362697
 40
0.9034021323628137
 40
0.9523810822250611
 40
1.0
 40
1.0
 40
1.0
 40
1.0
 10
59.14956356731239
 20
90.23505748951067
 30
0.0
 10
59.14015120574636
 20
90.23859223011503
 30
0.0
 10
59.06636474983168
 20
90.26630217091413
 30
0.0
 10
59.01590945413824
 20
90.31816027391311
 30
0.0
 10
59.00838586689795
 20
90.39068108921573
 30
0.0
 10
59.10996119756884
 20
90.46320048910644
 30
0.0
 10
59.30214799863333
 20
90.53569516072594
 30
0.0
 10
59.57805900699995
 20
90.60820620423534
 30
0.0
 10
59.92881990466263
 20
90.6807269371292
 30
0.0
 10
60.33813492794545
 20
90.75323122733478
 30
0.0
 10
60.78720088864727
 20
90.82573088293522
 30
0.0
 10
61.25854703315679
 20
90.89825467712339
 30
0.0
 10
61.73111678198595
 20
90.97076903299144
 30
0.0
 10
62.20402602921045
 20
91.04625367147348
 30
0.0
 10
62.65284456076087
 20
91.12485310313606
 30
0.0
 10
63.04316334629478
 20
91.20642256815215
 30
0.0
 10
63.34171799856453
 20
91.2879732038704
 30
0.0
 10
63.51562243182688
 20
91.36419184216628
 30
0.0
 10
63.58486696406727
 20
91.43467468487984
 30
0.0
 10
63.56231120303707
 20
91.49944090781753
 30
0.0
 10
63.46985661388699
 20
91.54250411337695
 30
0.0
 10
63.42428016808811
 20
91.56373256587615
 30
0.0
  0
LWPOLYLINE
  5
127
330
1F
100
AcDbEntity
  8
0
  6
Continuous
 62
     7
370
    15
100
AcDbPolyline
 90
       18
 70
   128
 43
0.0
 10
59.5617705477
 20
92.3918981268
 10
59.4777035514
 20
92.4300190225
 10
59.4002400977
 20
92.5115917041
 10
59.427997585
 20
92.5931643858
 10
59.5538898125
 20
92.6747407927
 10
59.7694555983
 20
92.7563134744
 10
60.0607614252
 20
92.8378861561
 10
60.4084416629
 20
92.9194588377
 10
60.7926323065
 20
93.0010315194
 10
61.1912364403
 20
93.0826079264
 10
61.582389426
 20
93.164180608
 10
61.9444267578
 20
93.2457532897
 10
62.2591350331
 20
93.3273259714
 10
62.5118473764
 20
93.408898653
 10
62.689092265
 20
93.4904676094
 10
62.785381706
 20
93.5720328405
 10
62.7987466506
 20
93.6536204233
 10
62.7987466506
 20
93.6536204233
  0
SPLINE
  5
128
330
1F
100
AcDbEntity
  8
0
  6
Continuous
 62
     7
370
    15
100
AcDbSpline
210
0.0
220
0.0
230
1.0
 70
    24
 71
     3
 72
     8
 73
     4
 74
     0
 42
0.000000001
 43
0.00000001
 40
0.0
 40
0.0
 40
0.0
 40
0.0
 40
1.0
 40
1.0
 40
1.0
 40
1.0
 10
59.67638057091114
 20
75.27175601851033
 30
0.0
 10
59.69533256842902
 20
75.2641290457636
 30
0.0
 10
59.7195806960839
 20
75.2543707177241
 30
0.0
 10
59.74849914076061
 20
75.24273288433903
 30
0.0
  0
SPLINE
  5
129
330
1F
100
AcDbEntity
  8
0
  6
Continuous
 62
     7
370
    15
100
AcDbSpline
210
0.0
220
0.0
230
1.0
 70
     8
 71
     3
 72
     8
 73
     4
 74
     0
 42
0.000000001
 43
0.00000001
 40
0.0
 40
0.0
 40
0.0
 40
0.0
 40
0.0002946831482078
 40
0.0002946831482078
 40
0.0002946831482078
 40
0.0002946831482078
 10
59.40697596932457
 20
75.16216805051873
 30
0.0
 10
59.49671178232943
 20
75.19900015326434
 30
0.0
 10
59.58649238210496
 20
75.2355819105647
 30
0.0
 10
59.67638057091114
 20
75.27175601851033
 30
0.0
  0
SPLINE
  5
12A
330
1F
100
AcDbEntity
  8
0
  6
Continuous
 62
     7
370
    15
100
AcDbSpline
210
0.0
220
0.0
230
1.0
 70
     8
 71
     3
 72
    13
 73
     9
 74
     0
 42
0.000000001
 43
0.00000001
 40
0.0
 40
0.0
 40
0.0
 40
0.0
 40
0.1525725714953307
 40
0.3051213599261767
 40
0.4900826362578904
 40
0.6750938152685191
 40
0.8600554610372441
 40
0.9999999999999999
 40
0.9999999999999999
 40
0.9999999999999999
 40
0.9999999999999999
 10
62.93803572055879
 20
73.58584107601274
 30
0.0
 10
63.02333887057822
 20
73.60576397438797
 30
0.0
 10
63.19393187353293
 20
73.64560666555023
 30
0.0
 10
63.39557752818057
 20
73.70960068245702
 30
0.0
 10
63.53616509659549
 20
73.77790524301929
 30
0.0
 10
63.58682781664195
 20
73.85038355291985
 30
0.0
 10
63.55559831385296
 20
73.91702718015112
 30
0.0
 10
63.46284751441924
 20
73.95948290257203
 30
0.0
 10
63.42289761972609
 20
73.97776955508817
 30
0.0
  0
SPLINE
  5
12B
330
1F
100
AcDbEntity
  8
0
  6
Continuous
 62
     7
370
    15
100
AcDbSpline
210
0.0
220
0.0
230
1.0
 70
     8
 71
     3
 72
    13
 73
     9
 74
     0
 42
0.000000001
 43
0.00000001
 40
0.0
 40
0.0
 40
0.0
 40
0.0
 40
0.1086782868645401
 40
0.3265317895195375
 40
0.5444441845603541
 40
0.7622982285053467
 40
0.9801525118606982
 40
1.0
 40
1.0
 40
1.0
 40
1.0
 10
59.167590014236
 20
74.8293625354134
 30
0.0
 10
59.13794349337745
 20
74.84141994690086
 30
0.0
 10
59.04886837277825
 20
74.87764731359538
 30
0.0
 10
59.00389258554539
 20
74.93805620177608
 30
0.0
 10
59.02803802498441
 20
75.01054561869539
 30
0.0
 10
59.15242487536859
 20
75.08304739542282
 30
0.0
 10
59.30343997834961
 20
75.13364920456085
 30
0.0
 10
59.39899722010965
 20
75.15997013344429
 30
0.0
 10
59.40697600466195
 20
75.16216786348451
 30
0.0
  0
SPLINE
  5
12C
330
1F
100
AcDbEntity
  8
0
  6
Continuous
 62
     7
370
    15
100
AcDbSpline
210
0.0
220
0.0
230
1.0
 70
     8
 71
     3
 72
    14
 73
    10
 74
     0
 42
0.000000001
 43
0.00000001
 40
0.0
 40
0.0
 40
0.0
 40
0.0
 40
0.1228400496239041
 40
0.267163010359983
 40
0.4157933266240568
 40
0.5579844206076446
 40
0.7043951368399254
 40
0.8498557029422509
 40
1.0
 40
1.0
 40
1.0
 40
1.0
 10
62.50162692607376
 20
93.39751044058431
 30
0.0
 10
62.46022104156012
 20
93.37636006407016
 30
0.0
 10
62.37016799463322
 20
93.33036042244619
 30
0.0
 10
62.18894345876672
 20
93.25872964881141
 30
0.0
 10
61.97655494146093
 20
93.18288723753346
 30
0.0
 10
61.74242742704597
 20
93.10564621242318
 30
0.0
 10
61.49807720572337
 20
93.02877140764029
 30
0.0
 10
61.2436250218705
 20
92.95032666310074
 30
0.0
 10
61.0785798930139
 20
92.8969247431703
 30
0.0
 10
60.99474979431364
 20
92.86980071806539
 30
0.0
  0
SPLINE
  5
12D
330
1F
100
AcDbEntity
  8
0
  6
Continuous
 62
     7
370
    15
100
AcDbSpline
210
0.0
220
0.0
230
1.0
 70
     8
 71
     3
 72
    15
 73
    11
 74
     0
 42
0.000000001
 43
0.00000001
 40
0.0
 40
0.0
 40
0.0
 40
0.0
 40
0.1240170420889353
 40
0.2513567475044846
 40
0.3801203135695643
 40
0.5126195366072098
 40
0.6413707229108265
 40
0.7738553124424042
 40
0.9026127930533163
 40
1.0
 40
1.0
 40
1.0
 40
1.0
 10
60.99474979431364
 20
92.86980071806539
 30
0.0
 10
60.92225849689699
 20
92.84735132283666
 30
0.0
 10
60.77533371596276
 20
92.80185106841121
 30
0.0
 10
60.57015828590136
 20
92.73356617580937
 30
0.0
 10
60.38147583897631
 20
92.66379230375877
 30
0.0
 10
60.22047339952725
 20
92.59330509898004
 30
0.0
 10
60.09088769620556
 20
92.5220375916016
 30
0.0
 10
60.00083636848186
 20
92.45207824662918
 30
0.0
 10
59.94979653907607
 20
92.38760588373049
 30
0.0
 10
59.94849230461246
 20
92.3466986288581
 30
0.0
 10
59.94793064759109
 20
92.32908228182426
 30
0.0
  0
SPLINE
  5
12E
330
1F
100
AcDbEntity
  8
0
  6
Continuous
 62
     7
370
    15
100
AcDbSpline
210
0.0
220
0.0
230
1.0
 70
     8
 71
     3
 72
    23
 73
    19
 74
     0
 42
0.000000001
 43
0.00000001
 40
0.0
 40
0.0
 40
0.0
 40
0.0
 40
0.0147681857386992
 40
0.0832399006554034
 40
0.1497771149763543
 40
0.2182424814541239
 40
0.2847960045791449
 40
0.3532805123796826
 40
0.4198210393265431
 40
0.4882903949320733
 40
0.5548410964584088
 40
0.6233222303903594
 40
0.6898669692508326
 40
0.7583411455117093
 40
0.8248886667806433
 40
0.8933661540515117
 40
0.959915435194314
 40
1.0
 40
1.0
 40
1.0
 40
1.0
 10
62.43468730111602
 20
90.87257759415736
 30
0.0
 10
62.42648787706031
 20
90.86814160945238
 30
0.0
 10
62.38027236650908
 20
90.84313847550723
 30
0.0
 10
62.26308599496807
 20
90.79800589245617
 30
0.0
 10
62.08555911303576
 20
90.73637978843833
 30
0.0
 10
61.88277324577242
 20
90.6757252527894
 30
0.0
 10
61.66093763768821
 20
90.6146613280599
 30
0.0
 10
61.42988356304506
 20
90.55385066789698
 30
0.0
 10
61.19272723522415
 20
90.49222265043554
 30
0.0
 10
60.96061220555651
 20
90.43167135589995
 30
0.0
 10
60.73652052851151
 20
90.37056087681982
 30
0.0
 10
60.53134553659523
 20
90.30967290042325
 30
0.0
 10
60.34749542312334
 20
90.24809669347901
 30
0.0
 10
60.19388487955042
 20
90.18761149340861
 30
0.0
 10
60.07189892197827
 20
90.1264454968018
 30
0.0
 10
59.98977121353887
 20
90.06548241348442
 30
0.0
 10
59.94662177105002
 20
90.01256966300511
 30
0.0
 10
59.94825314622017
 20
89.9805563551385
 30
0.0
 10
59.94886639394793
 20
89.96852228188148
 30
0.0
  0
SPLINE
  5
12F
330
1F
100
AcDbEntity
  8
0
  6
Continuous
 62
     7
370
    15
100
AcDbSpline
210
0.0
220
0.0
230
1.0
 70
     8
 71
     3
 72
    23
 73
    19
 74
     0
 42
0.000000001
 43
0.00000001
 40
0.0
 40
0.0
 40
0.0
 40
0.0
 40
0.0106108134517568
 40
0.0791371241249007
 40
0.1457549387345829
 40
0.2143060000003703
 40
0.2809046518809716
 40
0.3494333380875733
 40
0.4160488987503526
 40
0.4845972457323571
 40
0.5511992200399767
 40
0.6197317327308364
 40
0.6863444690044205
 40
0.754889568292947
 40
0.8214957989332924
 40
0.8900329851214152
 40
0.9566426249059409
 40
1.0
 40
1.0
 40
1.0
 40
1.0
 10
62.43364189152602
 20
88.67165559672941
 30
0.0
 10
62.4278147705978
 20
88.6684515503058
 30
0.0
 10
62.38435518153953
 20
88.64455526556956
 30
0.0
 10
62.27083044078455
 20
88.60063424302655
 30
0.0
 10
62.09471829767868
 20
88.53960378926587
 30
0.0
 10
61.89284222450688
 20
88.4788738983204
 30
0.0
 10
61.67188750797618
 20
88.41724568308155
 30
0.0
 10
61.44119830380386
 20
88.35657814184938
 30
0.0
 10
61.20391549464821
 20
88.29551850493888
 30
0.0
 10
60.97154005184905
 20
88.23471604771905
 30
0.0
 10
60.74694127773103
 20
88.17308528218705
 30
0.0
 10
60.5407472391141
 20
88.11252431475336
 30
0.0
 10
60.35556517340105
 20
88.05142056794452
 30
0.0
 10
60.20054279693725
 20
87.99053905200729
 30
0.0
 10
60.07693686296305
 20
87.92895411556312
 30
0.0
 10
59.99280029402259
 20
87.8684624614696
 30
0.0
 10
59.94755323678046
 20
87.81487750347222
 30
0.0
 10
59.94833641594382
 20
87.78166678184374
 30
0.0
 10
59.94864520483646
 20
87.76857258522142
 30
0.0
  0
SPLINE
  5
130
330
1F
100
AcDbEntity
  8
0
  6
Continuous
 62
     7
370
    15
100
AcDbSpline
210
0.0
220
0.0
230
1.0
 70
     8
 71
     3
 72
    23
 73
    19
 74
     0
 42
0.000000001
 43
0.00000001
 40
0.0
 40
0.0
 40
0.0
 40
0.0
 40
0.0089824789742914
 40
0.0774242844345073
 40
0.1439125909135243
 40
0.212327334906146
 40
0.2788372526022743
 40
0.3472771411645567
 40
0.4137672879536209
 40
0.4821844043699195
 40
0.5486919659159333
 40
0.6171293320602783
 40
0.6836226542713476
 40
0.7520434477112904
 40
0.8185483222284965
 40
0.886982341523635
 40
0.953479912426068
 40
0.9999999999999999
 40
0.9999999999999999
 40
0.9999999999999999
 40
0.9999999999999999
 10
62.43691351131532
 20
86.47317925238241
 30
0.0
 10
62.43203551787834
 20
86.47047920541489
 30
0.0
 10
62.389989758304
 20
86.44720620861777
 30
0.0
 10
62.27844496630341
 20
86.4038780228613
 30
0.0
 10
62.10388117361761
 20
86.34229169401564
 30
0.0
 10
61.90305557315315
 20
86.28149063200738
 30
0.0
 10
61.68266868378604
 20
86.2204580851412
 30
0.0
 10
61.45234233156216
 20
86.15973622423043
 30
0.0
 10
61.21527813215434
 20
86.09811190024087
 30
0.0
 10
60.98260530844868
 20
86.03743076840244
 30
0.0
 10
60.7572230192351
 20
85.97637642174254
 30
0.0
 10
60.55014053318538
 20
85.91557843535136
 30
0.0
 10
60.3638423037979
 20
85.85394840493336
 30
0.0
 10
60.20728619169243
 20
85.79337812721305
 30
0.0
 10
60.0819657474877
 20
85.7322763087534
 30
0.0
 10
59.99594475094431
 20
85.67140950503895
 30
0.0
 10
59.94852609166809
 20
85.61643523361047
 30
0.0
 10
59.94839110358663
 20
85.58247622573933
 30
0.0
 10
59.9483355400804
 20
85.56849809133638
 30
0.0
  0
SPLINE
  5
131
330
1F
100
AcDbEntity
  8
0
  6
Continuous
 62
     7
370
    15
100
AcDbSpline
210
0.0
220
0.0
230
1.0
 70
     8
 71
     3
 72
    23
 73
    19
 74
     0
 42
0.000000001
 43
0.00000001
 40
0.0
 40
0.0
 40
0.0
 40
0.0
 40
0.0052463598359125
 40
0.073696300811736
 40
0.1402424211561917
 40
0.208719917544938
 40
0.275242744097029
 40
0.3436929984534022
 40
0.4102375517621482
 40
0.4787133553852519
 40
0.5452379172882423
 40
0.613690247520311
 40
0.6802326152710733
 40
0.7487058457582528
 40
0.8152334545105169
 40
0.8836894345039915
 40
0.9502291098471012
 40
1.0
 40
1.0
 40
1.0
 40
1.0
 10
62.43672841095361
 20
84.27268566333879
 30
0.0
 10
62.43390840146596
 20
84.27110124608156
 30
0.0
 10
62.39429536042528
 20
84.24884473023974
 30
0.0
 10
62.28604379152033
 20
84.20640897309514
 30
0.0
 10
62.11296160652058
 20
84.14538951070408
 30
0.0
 10
61.91301301952034
 20
84.08473789096763
 30
0.0
 10
61.69353605761976
 20
84.02315857988995
 30
0.0
 10
61.4636736728087
 20
83.96234327676065
 30
0.0
 10
61.22649819313536
 20
83.90131599385327
 30
0.0
 10
60.99353228931642
 20
83.84059837212673
 30
0.0
 10
60.76770070000184
 20
83.77897529116879
 30
0.0
 10
60.55968476033105
 20
83.7182842654455
 30
0.0
 10
60.37204046673083
 20
83.65723349399315
 30
0.0
 10
60.21406344339419
 20
83.5964434721001
 30
0.0
 10
60.08717036529322
 20
83.53481242782323
 30
0.0
 10
59.99918089886484
 20
83.47422580134845
 30
0.0
 10
59.94950766830045
 20
83.41876796801867
 30
0.0
 10
59.94840316382631
 20
83.38362807771925
 30
0.0
 10
59.94793053117576
 20
83.36859123551477
 30
0.0
  0
SPLINE
  5
132
330
1F
100
AcDbEntity
  8
0
  6
Continuous
 62
     7
370
    15
100
AcDbSpline
210
0.0
220
0.0
230
1.0
 70
     8
 71
     3
 72
    23
 73
    19
 74
     0
 42
0.000000001
 43
0.00000001
 40
0.0
 40
0.0
 40
0.0
 40
0.0
 40
0.0024992274414326
 40
0.0709436799030465
 40
0.1374335587386966
 40
0.2058497951784871
 40
0.2723631808421845
 40
0.3408070598778021
 40
0.4072969212731199
 40
0.4757132074915819
 40
0.5422252066633622
 40
0.6106672680341725
 40
0.6771588597578603
 40
0.745577078114388
 40
0.8120869206893669
 40
0.8805267294562504
 40
0.9470211185645006
 40
1.0
 40
1.0
 40
1.0
 40
1.0
 10
62.43825403374615
 20
82.07312525951495
 30
0.0
 10
62.43692424282963
 20
82.07237336105166
 30
0.0
 10
62.3991764734367
 20
82.05102978782791
 30
0.0
 10
62.29342289194717
 20
82.00973270716574
 30
0.0
 10
62.12201088645169
 20
81.94821309840688
 30
0.0
 10
61.92315802986601
 20
81.88727572462982
 30
0.0
 10
61.70429809546639
 20
81.82624162756109
 30
0.0
 10
61.47476453539004
 20
81.76559793720766
 30
0.0
 10
61.23784282051993
 20
81.70402444118056
 30
0.0
 10
61.00467685048095
 20
81.64319995795496
 30
0.0
 10
60.77807494021993
 20
81.58216945086433
 30
0.0
 10
60.56914111754456
 20
81.52146397492338
 30
0.0
 10
60.38043341311658
 20
81.45983988206841
 30
0.0
 10
60.22098635057875
 20
81.39914053230572
 30
0.0
 10
60.09236159473387
 20
81.33808938774617
 30
0.0
 10
60.0024986377383
 20
81.27731047104841
 30
0.0
 10
59.95053872456782
 20
81.2203411704078
 30
0.0
 10
59.9483843455625
 20
81.18440800132794
 30
0.0
 10
59.94742901396933
 20
81.1684739007913
 30
0.0
  0
SPLINE
  5
133
330
1F
100
AcDbEntity
  8
0
  6
Continuous
 62
     7
370
    15
100
AcDbSpline
210
0.0
220
0.0
230
1.0
 70
     8
 71
     3
 72
    22
 73
    18
 74
     0
 42
0.000000001
 43
0.00000001
 40
0.0
 40
0.0
 40
0.0
 40
0.0
 40
0.0681273700916999
 40
0.1346111562993956
 40
0.203024411122836
 40
0.269483900867892
 40
0.3378689710390715
 40
0.4043521199142477
 40
0.4727647293040177
 40
0.5392240354320003
 40
0.607609093702716
 40
0.6740906571668163
 40
0.7425016854943994
 40
0.8089626069342197
 40
0.8773492972324597
 40
0.9438290114391241
 40
0.9999999999999999
 40
0.9999999999999999
 40
0.9999999999999999
 40
0.9999999999999999
 10
62.43967837520871
 20
79.87358720743288
 30
0.0
 10
62.39441056424013
 20
79.85294865245903
 30
0.0
 10
62.30496703560515
 20
79.81216945100684
 30
0.0
 10
62.12983657102993
 20
79.75115555915168
 30
0.0
 10
61.93332938027045
 20
79.69058206111005
 30
0.0
 10
61.71499493467564
 20
79.629084032537
 30
0.0
 10
61.48611888202489
 20
79.56813400634537
 30
0.0
 10
61.2490997978591
 20
79.50709568580943
 30
0.0
 10
61.01561645257473
 20
79.44645933889603
 30
0.0
 10
60.7885967405725
 20
79.38489378357716
 30
0.0
 10
60.5788203432261
 20
79.32405196722856
 30
0.0
 10
60.38877076271226
 20
79.26302783152612
 30
0.0
 10
60.22788439866648
 20
79.20232490662157
 30
0.0
 10
60.09772429908476
 20
79.1407075943846
 30
0.0
 10
60.00593960787984
 20
79.07998858682932
 30
0.0
 10
59.95157422657886
 20
79.02263756403073
 30
0.0
 10
59.94832842729888
 20
78.98558602495437
 30
0.0
 10
59.94684193150136
 20
78.96861733638873
 30
0.0
  0
SPLINE
  5
134
330
1F
100
AcDbEntity
  8
0
  6
Continuous
 62
     7
370
    15
100
AcDbSpline
210
0.0
220
0.0
230
1.0
 70
     8
 71
     3
 72
    22
 73
    18
 74
     0
 42
0.000000001
 43
0.00000001
 40
0.0
 40
0.0
 40
0.0
 40
0.0
 40
0.0641168446721588
 40
0.1306351456724756
 40
0.199080914465324
 40
0.2656214643961042
 40
0.3340930320890543
 40
0.4006093013323896
 40
0.4690527671596945
 40
0.5355925940292962
 40
0.60406361024354
 40
0.6705794073290252
 40
0.739022517400205
 40
0.805560944511107
 40
0.874030506242639
 40
0.9405476616144673
 40
0.9999999999999999
 40
0.9999999999999999
 40
0.9999999999999999
 40
0.9999999999999999
 10
62.43713330344293
 20
77.67273785316576
 30
0.0
 10
62.39499353756617
 20
77.65347733807494
 30
0.0
 10
62.30913568722961
 20
77.61423491734321
 30
0.0
 10
62.13863437030988
 20
77.55413971779895
 30
0.0
 10
61.94342551748091
 20
77.49310132882843
 30
0.0
 10
61.72573439504078
 20
77.43201136061913
 30
0.0
 10
61.49717671249589
 20
77.37144089265895
 30
0.0
 10
61.26041897998028
 20
77.30995024757378
 30
0.0
 10
61.02682592131649
 20
77.24899049755723
 30
0.0
 10
60.79907265658628
 20
77.1879506173071
 30
0.0
 10
60.58834955280543
 20
77.12731860476765
 30
0.0
 10
60.39726844380653
 20
77.06575989028929
 30
0.0
 10
60.23498131475144
 20
77.00490851425207
 30
0.0
 10
60.1030854835572
 20
76.94388159259846
 30
0.0
 10
60.0094284214887
 20
76.88318899221436
 30
0.0
 10
59.95266250196782
 20
76.82428110433257
 30
0.0
 10
59.94823769892949
 20
76.78634982620846
 30
0.0
 10
59.94614937675181
 20
76.76844784760108
 30
0.0
  0
SPLINE
  5
135
330
1F
100
AcDbEntity
  8
0
  6
Continuous
 62
     7
370
    15
100
AcDbSpline
210
0.0
220
0.0
230
1.0
 70
     8
 71
     3
 72
    22
 73
    18
 74
     0
 42
0.000000001
 43
0.00000001
 40
0.0
 40
0.0
 40
0.0
 40
0.0
 40
0.0599822454170848
 40
0.1265855151380171
 40
0.1951214378549148
 40
0.2617036271380653
 40
0.3302152548629001
 40
0.396819473302803
 40
0.4653566062084489
 40
0.531936730200782
 40
0.6004458955372187
 40
0.667049480147416
 40
0.7355860063706265
 40
0.802165461733206
 40
0.8706740271273787
 40
0.9372763035920287
 40
1.0
 40
1.0
 40
1.0
 40
1.0
 10
62.43452245702031
 20
75.4719779058658
 30
0.0
 10
62.39557872665338
 20
75.45383896400526
 30
0.0
 10
62.31339253746328
 20
75.41555884822253
 30
0.0
 10
62.14742801874576
 20
75.35692152191679
 30
0.0
 10
61.95324641560202
 20
75.29641084287942
 30
0.0
 10
61.73642222178701
 20
75.23500574121294
 30
0.0
 10
61.50849598234052
 20
75.17396100159779
 30
0.0
 10
61.27173291211038
 20
75.11286548089643
 30
0.0
 10
61.03779293295356
 20
75.0523001809028
 30
0.0
 10
60.80963753698801
 20
74.99081617071053
 30
0.0
 10
60.59814916672006
 20
74.9298476519992
 30
0.0
 10
60.40575662605113
 20
74.86880332677777
 30
0.0
 10
60.24200610327497
 20
74.80818086689214
 30
0.0
 10
60.10860023596003
 20
74.74662680748824
 30
0.0
 10
60.01307143276183
 20
74.68575851351282
 30
0.0
 10
59.95375645880652
 20
74.62649603950959
 30
0.0
 10
59.94811669598737
 20
74.58754068842761
 30
0.0
 10
59.94538138487372
 20
74.56864716255296
 30
0.0
  0
SPLINE
  5
136
330
1F
100
AcDbEntity
  8
0
  6
Continuous
 62
     7
370
    15
100
AcDbSpline
210
0.0
220
0.0
230
1.0
 70
     8
 71
     3
 72
     9
 73
     5
 74
     0
 42
0.000000001
 43
0.00000001
 40
0.0
 40
0.0
 40
0.0
 40
0.0
 40
0.3805407813092218
 40
1.0
 40
1.0
 40
1.0
 40
1.0
 10
62.43593375996682
 20
73.27274998420108
 30
0.0
 10
62.39903598413525
 20
73.25542914749641
 30
0.0
 10
62.30207456069823
 20
73.20991277302251
 30
0.0
 10
62.16377882422816
 20
73.1640447384189
 30
0.0
 10
62.07811025536615
 20
73.13563136154045
 30
0.0
  0
SPLINE
  5
137
330
1F
100
AcDbEntity
  8
0
  6
Continuous
 62
     7
370
    15
100
AcDbSpline
210
0.0
220
0.0
230
1.0
 70
     8
 71
     3
 72
    11
 73
     7
 74
     0
 42
0.000000001
 43
0.00000001
 40
0.0
 40
0.0
 40
0.0
 40
0.0
 40
0.0004703604016231
 40
0.0004703604016231
 40
0.0004703604016231
 40
0.0009311001775437
 40
0.0009311001775437
 40
0.0009311001775437
 40
0.0009311001775437
 10
62.91344283476866
 20
73.52473078251236
 30
0.0
 10
62.77235803378464
 20
73.46079314887089
 30
0.0
 10
62.63139615104982
 20
73.39621070695236
 30
0.0
 10
62.49071037810162
 20
73.33072528857745
 30
0.0
 10
62.35290277702335
 20
73.26657958128425
 30
0.0
 10
62.21538200983825
 20
73.20150163806179
 30
0.0
 10
62.07811024140481
 20
73.135631343834
 30
0.0
  0
SPLINE
  5
138
330
1F
100
AcDbEntity
  8
0
  6
Continuous
 62
     7
370
    15
100
AcDbSpline
210
0.0
220
0.0
230
1.0
 70
    24
 71
     3
 72
     8
 73
     4
 74
     0
 42
0.000000001
 43
0.00000001
 40
0.0
 40
0.0
 40
0.0
 40
0.0
 40
1.0
 40
1.0
 40
1.0
 40
1.0
 10
62.91344283476859
 20
73.52473078251235
 30
0.0
 10
62.91992911155597
 20
73.54084830458261
 30
0.0
 10
62.92832836810503
 20
73.56171932307899
 30
0.0
 10
62.93803577040605
 20
73.58584090714953
 30
0.0
  0
SPLINE
  5
139
330
1F
100
AcDbEntity
  8
0
  6
Continuous
 62
     7
370
    15
100
AcDbSpline
210
0.0
220
0.0
230
1.0
 70
     8
 71
     3
 72
     8
 73
     4
 74
     0
 42
0.000000001
 43
0.00000001
 40
0.0
 40
0.0
 40
0.0
 40
0.0
 40
1.0
 40
1.0
 40
1.0
 40
1.0
 10
60.30082225736948
 20
75.02045798409208
 30
0.0
 10
59.99904948829882
 20
75.0334905890227
 30
0.0
 10
59.70093459591588
 20
75.09035689351325
 30
0.0
 10
59.40697596932456
 20
75.16216805051872
 30
0.0
  0
SPLINE
  5
13A
330
1F
100
AcDbEntity
  8
0
  6
Continuous
 62
     7
370
    15
100
AcDbSpline
210
0.0
220
0.0
230
1.0
 70
     8
 71
     3
 72
     8
 73
     4
 74
     0
 42
0.000000001
 43
0.00000001
 40
0.0
 40
0.0
 40
0.0
 40
0.0
 40
1.0
 40
1.0
 40
1.0
 40
1.0
 10
59.74849916260226
 20
75.24273288603942
 30
0.0
 10
59.93707492844219
 20
75.16684314273405
 30
0.0
 10
60.12206089850245
 20
75.0923980532569
 30
0.0
 10
60.3008222573695
 20
75.02045798409206
 30
0.0
  0
SPLINE
  5
13B
330
1F
100
AcDbEntity
  8
0
  6
Continuous
 62
     7
370
    15
100
AcDbSpline
210
0.0
220
0.0
230
1.0
 70
    24
 71
     3
 72
    14
 73
    10
 74
     0
 42
0.000000001
 43
0.00000001
 40
0.0000077263205311
 40
0.0000077263205311
 40
0.0000077263205311
 40
0.0000077263205311
 40
0.0005578323855247
 40
0.0005578323855247
 40
0.0005578323855247
 40
0.0008368731160192
 40
0.0008368731160192
 40
0.0008368731160192
 40
0.0011159289923018
 40
0.0011159289923018
 40
0.0011159289923018
 40
0.0011159289923018
 10
60.85174366172141
 20
68.40168669835268
 30
0.0
 10
60.88411496300345
 20
68.48212501141867
 30
0.0
 10
60.9153453865034
 20
68.55972839723209
 30
0.0
 10
60.94601927288802
 20
68.63594886345494
 30
0.0
 10
60.9615796415499
 20
68.6746142786924
 30
0.0
 10
60.97698968322246
 20
68.71290615165785
 30
0.0
 10
60.99229046967383
 20
68.75092654014975
 30
0.0
 10
61.00759212756056
 20
68.78894909404085
 30
0.0
 10
61.02278443304949
 20
68.82669992198767
 30
0.0
 10
61.03789602521334
 20
68.86425018821919
 30
0.0
  0
SPLINE
  5
13C
330
1F
100
AcDbEntity
  8
0
  6
Continuous
 62
     7
370
    15
100
AcDbSpline
210
0.0
220
0.0
230
1.0
 70
     8
 71
     3
 72
    17
 73
    13
 74
     0
 42
0.000000001
 43
0.00000001
 40
0.0
 40
0.0
 40
0.0
 40
0.0
 40
0.0956767830450867
 40
0.191362967360572
 40
0.2870291515398037
 40
0.3826944895015412
 40
0.4969854661343422
 40
0.6112452775428049
 40
0.7255085384371667
 40
0.8397969104123368
 40
0.9540533875057197
 40
1.0
 40
1.0
 40
1.0
 40
1.0
 10
61.03789601923894
 20
68.86424982690443
 30
0.0
 10
61.18601471277977
 20
68.88700218858055
 30
0.0
 10
61.48226665411213
 20
68.93250914759645
 30
0.0
 10
61.9220516348532
 20
69.0007464619401
 30
0.0
 10
62.3378762241117
 20
69.06901317102445
 30
0.0
 10
62.73722310156542
 20
69.1416860618063
 30
0.0
 10
63.09555987147552
 20
69.21882621084349
 30
0.0
 10
63.37792271257431
 20
69.3004111320533
 30
0.0
 10
63.54618349272194
 20
69.38199680882721
 30
0.0
 10
63.58839474783503
 20
69.46354160962615
 30
0.0
 10
63.54430310029696
 20
69.52887688186034
 30
0.0
 10
63.44556148460437
 20
69.56699759113079
 30
0.0
 10
63.41724216339174
 20
69.57793069773545
 30
0.0
  0
SPLINE
  5
13D
330
1F
100
AcDbEntity
  8
0
  6
Continuous
 62
     7
370
    15
100
AcDbSpline
210
0.0
220
0.0
230
1.0
 70
     8
 71
     3
 72
    11
 73
     7
 74
     0
 42
0.000000001
 43
0.00000001
 40
0.0
 40
0.0
 40
0.0
 40
0.0
 40
0.051032852959661
 40
0.3673263459825101
 40
0.6837044142177254
 40
1.0
 40
1.0
 40
1.0
 40
1.0
 10
59.16275970970276
 20
70.42966989570488
 30
0.0
 10
59.15070675756369
 20
70.43392636627308
 30
0.0
 10
59.06395152812262
 20
70.46456376335998
 30
0.0
 10
59.01280704091072
 20
70.52158452353372
 30
0.0
 10
59.00962856093369
 20
70.60068896231593
 30
0.0
 10
59.11006648451342
 20
70.65345482390069
 30
0.0
 10
59.16027889919463
 20
70.67983431511749
 30
0.0
  0
SPLINE
  5
13E
330
1F
100
AcDbEntity
  8
0
  6
Continuous
 62
     7
370
    15
100
AcDbSpline
210
0.0
220
0.0
230
1.0
 70
     8
 71
     3
 72
    10
 73
     6
 74
     0
 42
0.000000001
 43
0.00000001
 40
0.0
 40
0.0
 40
0.0
 40
0.0
 40
0.5
 40
0.5
 40
1.0
 40
1.0
 40
1.0
 40
1.0
 10
60.20947660973961
 20
70.39213368378252
 30
0.0
 10
60.03063739627686
 20
70.42391512846734
 30
0.0
 10
59.85479303218312
 20
70.46839977869598
 30
0.0
 10
59.50552749695692
 20
70.56750213729251
 30
0.0
 10
59.33247691319183
 20
70.6224050969207
 30
0.0
 10
59.16027882450076
 20
70.6798346988763
 30
0.0
  0
SPLINE
  5
13F
330
1F
100
AcDbEntity
  8
0
  6
Continuous
 62
     7
370
    15
100
AcDbSpline
210
0.0
220
0.0
230
1.0
 70
     8
 71
     3
 72
    11
 73
     7
 74
     0
 42
0.000000001
 43
0.00000001
 40
0.0
 40
0.0
 40
0.0
 40
0.0
 40
0.4506160115098888
 40
0.7201196438469459
 40
0.9974449534668409
 40
1.0
 40
1.0
 40
1.0
 40
1.0
 10
60.20947664377275
 20
70.39213387065757
 30
0.0
 10
60.14018185239846
 20
70.35837088286924
 30
0.0
 10
60.02944335396449
 20
70.3044149866731
 30
0.0
 10
59.96153203436742
 20
70.23049779841202
 30
0.0
 10
59.93706653279327
 20
70.18975030232507
 30
0.0
 10
59.94387105929165
 20
70.16887039674269
 30
0.0
 10
59.94393317827019
 20
70.16867978268493
 30
0.0
  0
SPLINE
  5
140
330
1F
100
AcDbEntity
  8
0
  6
Continuous
 62
     7
370
    15
100
AcDbSpline
210
0.0
220
0.0
230
1.0
 70
     8
 71
     3
 72
    15
 73
    11
 74
     0
 42
0.000000001
 43
0.00000001
 40
0.0
 40
0.0
 40
0.0
 40
0.0
 40
0.0962342268359856
 40
0.2242313975102531
 40
0.3559395834652427
 40
0.4839566046511763
 40
0.6156874148648218
 40
0.7436784717634025
 40
0.8753793741684794
 40
1.0
 40
1.0
 40
1.0
 40
1.0
 10
62.43255515449676
 20
68.87164452814687
 30
0.0
 10
62.40110857285013
 20
68.85661569874523
 30
0.0
 10
62.32783619168825
 20
68.82159764404189
 30
0.0
 10
62.17330951979766
 20
68.76593254596133
 30
0.0
 10
61.98285667739083
 20
68.70489179926123
 30
0.0
 10
61.76844608168383
 20
68.64354898629449
 30
0.0
 10
61.54181342344611
 20
68.583079650361
 30
0.0
 10
61.30582076567535
 20
68.52177617289396
 30
0.0
 10
61.07281272187448
 20
68.46123684274386
 30
0.0
 10
60.92406374123654
 20
68.4211680455002
 30
0.0
 10
60.85174367047842
 20
68.40168704980243
 30
0.0
  0
SPLINE
  5
141
330
1F
100
AcDbEntity
  8
0
  6
Continuous
 62
     7
370
    15
100
AcDbSpline
210
0.0
220
0.0
230
1.0
 70
     8
 71
     3
 72
    21
 73
    17
 74
     0
 42
0.000000001
 43
0.00000001
 40
0.0
 40
0.0
 40
0.0
 40
0.0
 40
0.0071875350084987
 40
0.0843581540788405
 40
0.1577849611344296
 40
0.2334460696159156
 40
0.3051292802711111
 40
0.3789812056306572
 40
0.4490834069468105
 40
0.5213159565780814
 40
0.5897898127999813
 40
0.6603465852723475
 40
0.7271406812624911
 40
0.7959614477677095
 40
0.9279516078875832
 40
1.0
 40
1.0
 40
1.0
 40
1.0
 10
62.30946841982189
 20
64.52014596902956
 30
0.0
 10
62.30580542904215
 20
64.51814568085038
 30
0.0
 10
62.26281389714403
 20
64.4946688395936
 30
0.0
 10
62.15320366589559
 20
64.45024845472535
 30
0.0
 10
61.98273233171766
 20
64.38574420579899
 30
0.0
 10
61.79373250537548
 20
64.32169194383921
 30
0.0
 10
61.59192270282582
 20
64.2571616131396
 30
0.0
 10
61.38824875613838
 20
64.19345077058647
 30
0.0
 10
61.18443316428471
 20
64.12847688464372
 30
0.0
 10
60.99221843516211
 20
64.06422372703499
 30
0.0
 10
60.81250904534656
 20
63.9993605056056
 30
0.0
 10
60.65595165696018
 20
63.93520480932119
 30
0.0
 10
60.52238701399116
 20
63.86974293335386
 30
0.0
 10
60.38814812263526
 20
63.78402902329197
 30
0.0
 10
60.29724101003994
 20
63.69383742700074
 30
0.0
 10
60.32125653581804
 20
63.62528214627712
 30
0.0
 10
60.32973669801834
 20
63.60107447722185
 30
0.0
  0
SPLINE
  5
142
330
1F
100
AcDbEntity
  8
0
  6
Continuous
 62
     7
370
    15
100
AcDbSpline
210
0.0
220
0.0
230
1.0
 70
     8
 71
     3
 72
    13
 73
     9
 74
     0
 42
0.000000001
 43
0.00000001
 40
0.0
 40
0.0
 40
0.0
 40
0.0
 40
0.1348821375376043
 40
0.3217877131384667
 40
0.5037771991728675
 40
0.6805443146947258
 40
0.8514120592741761
 40
1.0
 40
1.0
 40
1.0
 40
1.0
 10
61.6872776228189
 20
62.20150759213794
 30
0.0
 10
61.63779745560344
 20
62.17039917175482
 30
0.0
 10
61.51975284165641
 20
62.0961839521773
 30
0.0
 10
61.30145572766554
 20
61.97245230636379
 30
0.0
 10
61.08562030391624
 20
61.83378251033388
 30
0.0
 10
60.92592163301576
 20
61.69369239595574
 30
0.0
 10
60.84156100509652
 20
61.55590124904673
 30
0.0
 10
60.85536072624369
 20
61.46136776419807
 30
0.0
 10
60.86177936971183
 20
61.41739754707743
 30
0.0
  0
LINE
  5
143
330
1F
100
AcDbEntity
  8
0
  6
Continuous
 62
     7
370
    15
100
AcDbLine
 10
61.4578799069
 20
60.3281041392
 30
0.0
 11
62.2437466155
 21
60.6536207768
 31
0.0
  0
SPLINE
  5
144
330
1F
100
AcDbEntity
  8
0
  6
Continuous
 62
     7
370
    15
100
AcDbSpline
210
0.0
220
0.0
230
1.0
 70
     8
 71
     3
 72
    10
 73
     6
 74
     0
 42
0.000000001
 43
0.00000001
 40
0.0
 40
0.0
 40
0.0
 40
0.0
 40
0.41035669795619
 40
0.8300691953757636
 40
1.0
 40
1.0
 40
1.0
 40
1.0
 10
62.24374661554578
 20
60.65362077675019
 30
0.0
 10
62.24253149512339
 20
60.69022942542345
 30
0.0
 10
62.24007355051977
 20
60.7642813702299
 30
0.0
 10
62.15236819817515
 20
60.85062749301509
 30
0.0
 10
62.05707102662084
 20
60.90030619746266
 30
0.0
 10
62.0296070920955
 20
60.91462322979424
 30
0.0
  0
SPLINE
  5
145
330
1F
100
AcDbEntity
  8
0
  6
Continuous
 62
     7
370
    15
100
AcDbSpline
210
0.0
220
0.0
230
1.0
 70
     8
 71
     3
 72
    24
 73
    20
 74
     0
 42
0.000000001
 43
0.00000001
 40
0.0
 40
0.0
 40
0.0
 40
0.0
 40
0.0618447011134717
 40
0.1302015120069836
 40
0.1848812838566285
 40
0.240720432479291
 40
0.2975921026093076
 40
0.3528077447381108
 40
0.4087126274316654
 40
0.4654378495489761
 40
0.5232261911838721
 40
0.5847687560671746
 40
0.6472516509363331
 40
0.7104674783978608
 40
0.7793478599122261
 40
0.8494593119829335
 40
0.9207805472518558
 40
0.9930016207278632
 40
1.0
 40
1.0
 40
1.0
 40
1.0
 10
60.298804448517
 20
61.55326598559697
 30
0.0
 10
60.23411638178102
 20
61.58852844829364
 30
0.0
 10
60.09792873843904
 20
61.66276643275366
 30
0.0
 10
60.03614234172186
 20
61.76525179919221
 30
0.0
 10
60.06792827659015
 20
61.86308844524774
 30
0.0
 10
60.18883385377442
 20
61.95243506898762
 30
0.0
 10
60.38722675388681
 20
62.04059626625379
 30
0.0
 10
60.64260903540254
 20
62.12716239009146
 30
0.0
 10
60.94010251606608
 20
62.21275090366749
 30
0.0
 10
61.27064828044936
 20
62.29843010927333
 30
0.0
 10
61.62048534407939
 20
62.38514001801305
 30
0.0
 10
61.9655095954642
 20
62.47332599833796
 30
0.0
 10
62.28393120910203
 20
62.56264944269604
 30
0.0
 10
62.557122014687
 20
62.6546613416101
 30
0.0
 10
62.7527428127921
 20
62.74848644152871
 30
0.0
 10
62.84184436437601
 20
62.84446597901589
 30
0.0
 10
62.81004615262101
 20
62.94000927460203
 30
0.0
 10
62.73965219240514
 20
63.00702426005428
 30
0.0
 10
62.65072763436169
 20
63.04158752691472
 30
0.0
 10
62.64287188981655
 20
63.04464090385664
 30
0.0
  0
SPLINE
  5
146
330
1F
100
AcDbEntity
  8
0
  6
Continuous
 62
     7
370
    15
100
AcDbSpline
210
0.0
220
0.0
230
1.0
 70
     8
 71
     3
 72
    24
 73
    20
 74
     0
 42
0.000000001
 43
0.00000001
 40
0.0
 40
0.0
 40
0.0
 40
0.0
 40
0.0338487971476357
 40
0.0952214290878917
 40
0.1581649095218889
 40
0.2217677396149392
 40
0.2859572548502908
 40
0.350776524867587
 40
0.4161835677561537
 40
0.4822338195104349
 40
0.5393826615944111
 40
0.5969685436800842
 40
0.6550320676483533
 40
0.7135474258133553
 40
0.7725020253527343
 40
0.8319350019576194
 40
0.8918177381806766
 40
0.9481212295326158
 40
1.0
 40
1.0
 40
1.0
 40
1.0
 10
59.65382538137022
 20
63.81579671756554
 30
0.0
 10
59.6139343579402
 20
63.83272309683273
 30
0.0
 10
59.50171529614556
 20
63.88033938334582
 30
0.0
 10
59.44349989938208
 20
63.95836071065111
 30
0.0
 10
59.49156531945593
 20
64.04957842377505
 30
0.0
 10
59.66840012618593
 20
64.14130366323587
 30
0.0
 10
59.96029724035178
 20
64.23311366789568
 30
0.0
 10
60.35103720283996
 20
64.3248335080439
 30
0.0
 10
60.81322391674298
 20
64.41664875195468
 30
0.0
 10
61.29488909897322
 20
64.50400614313534
 30
0.0
 10
61.75820735171737
 20
64.58691878918214
 30
0.0
 10
62.18205008613726
 20
64.66561983428167
 30
0.0
 10
62.56630791039515
 20
64.74425149251141
 30
0.0
 10
62.89348693400469
 20
64.82289941559262
 30
0.0
 10
63.14505464930602
 20
64.90159161091871
 30
0.0
 10
63.30468202710956
 20
64.98022389878709
 30
0.0
 10
63.36374200291582
 20
65.05711277502621
 30
0.0
 10
63.33361223783074
 20
65.1302007244104
 30
0.0
 10
63.24111120207706
 20
65.17680538232473
 30
0.0
 10
63.19675235875878
 20
65.19915463173021
 30
0.0
  0
SPLINE
  5
147
330
1F
100
AcDbEntity
  8
0
  6
Continuous
 62
     7
370
    15
100
AcDbSpline
210
0.0
220
0.0
230
1.0
 70
     8
 71
     3
 72
    12
 73
     8
 74
     0
 42
0.000000001
 43
0.00000001
 40
0.0
 40
0.0
 40
0.0
 40
0.0
 40
0.1539192341768496
 40
0.3861274239566889
 40
0.5906104476233944
 40
0.7952789267426131
 40
1.0
 40
1.0
 40
1.0
 40
1.0
 10
59.17133323249403
 20
66.03750467070569
 30
0.0
 10
59.13389907288971
 20
66.05382292755118
 30
0.0
 10
59.03999037009957
 20
66.09475950388557
 30
0.0
 10
59.00781862300417
 20
66.15694663959529
 30
0.0
 10
59.04850272889507
 20
66.2242965133487
 30
0.0
 10
59.16630859732125
 20
66.28871628368022
 30
0.0
 10
59.30526515520338
 20
66.33166833568852
 30
0.0
 10
59.37475235999558
 20
66.3531471207105
 30
0.0
  0
SPLINE
  5
148
330
1F
100
AcDbEntity
  8
0
  6
Continuous
 62
     7
370
    15
100
AcDbSpline
210
0.0
220
0.0
230
1.0
 70
     8
 71
     3
 72
    11
 73
     7
 74
     0
 42
0.000000001
 43
0.00000001
 40
0.0
 40
0.0
 40
0.0
 40
0.0
 40
0.0003060536200516
 40
0.0003060536200516
 40
0.0003060536200516
 40
0.0006126201729032
 40
0.0006126201729032
 40
0.0006126201729032
 40
0.0006126201729032
 10
59.97039526434242
 20
66.21165492635437
 30
0.0
 10
59.87028697162738
 20
66.23086317829026
 30
0.0
 10
59.77065607785741
 20
66.25276927000566
 30
0.0
 10
59.67149962958894
 20
66.27654757123716
 30
0.0
 10
59.57216837730935
 20
66.30036779150173
 30
0.0
 10
59.47326931291096
 20
66.32608376758546
 30
0.0
 10
59.37475238799195
 20
66.35314709787421
 30
0.0
  0
SPLINE
  5
149
330
1F
100
AcDbEntity
  8
0
  6
Continuous
 62
     7
370
    15
100
AcDbSpline
210
0.0
220
0.0
230
1.0
 70
    24
 71
     3
 72
     8
 73
     4
 74
     0
 42
0.000000001
 43
0.00000001
 40
0.0
 40
0.0
 40
0.0
 40
0.0
 40
1.0
 40
1.0
 40
1.0
 40
1.0
 10
59.97039526434246
 20
66.21165492635438
 30
0.0
 10
60.00914399833561
 20
66.30794029865672
 30
0.0
 10
60.04941672421852
 20
66.40801258504241
 30
0.0
 10
60.09000749040334
 20
66.50887515863862
 30
0.0
  0
SPLINE
  5
14A
330
1F
100
AcDbEntity
  8
0
  6
Continuous
 62
     7
370
    15
100
AcDbSpline
210
0.0
220
0.0
230
1.0
 70
     8
 71
     3
 72
    19
 73
    15
 74
     0
 42
0.000000001
 43
0.00000001
 40
0.0
 40
0.0
 40
0.0
 40
0.0
 40
0.0207610593516695
 40
0.1144557666996443
 40
0.2081632239937534
 40
0.3018465724588849
 40
0.3955474267418136
 40
0.4892490801292032
 40
0.5829322732198857
 40
0.6766390743477901
 40
0.7703345283239437
 40
0.8640196069587461
 40
0.9577308416327337
 40
1.0
 40
1.0
 40
1.0
 40
1.0
 10
60.09000751522365
 20
66.50887496539582
 30
0.0
 10
60.12359406334475
 20
66.51488593553415
 30
0.0
 10
60.30875677835265
 20
66.54802442736825
 30
0.0
 10
60.67715907098412
 20
66.60851600714562
 30
0.0
 10
61.2044856918908
 20
66.69003776741891
 30
0.0
 10
61.73794683056508
 20
66.77164463325087
 30
0.0
 10
62.24629421362236
 20
66.8532060767887
 30
0.0
 10
62.70465318271398
 20
66.9347676616699
 30
0.0
 10
63.08604331073682
 20
67.016366997414
 30
0.0
 10
63.36889286505605
 20
67.09791947510502
 30
0.0
 10
63.54456811373905
 20
67.17949338807999
 30
0.0
 10
63.5891444344384
 20
67.26108936608628
 30
0.0
 10
63.54437859612495
 20
67.32771422382419
 30
0.0
 10
63.44434127350033
 20
67.36718106438401
 30
0.0
 10
63.41324492690149
 20
67.37944923111428
 30
0.0
  0
SPLINE
  5
14B
330
1F
100
AcDbEntity
  8
0
  6
Continuous
 62
     7
370
    15
100
AcDbSpline
210
0.0
220
0.0
230
1.0
 70
     8
 71
     3
 72
    12
 73
     8
 74
     0
 42
0.000000001
 43
0.00000001
 40
0.0
 40
0.0
 40
0.0
 40
0.0
 40
0.0303635119463017
 40
0.3362692046595606
 40
0.6421054777271121
 40
0.9480115496672232
 40
1.0
 40
1.0
 40
1.0
 40
1.0
 10
59.15628212836567
 20
68.23185758435358
 30
0.0
 10
59.14867281674883
 20
68.23455688845134
 30
0.0
 10
59.06440136719032
 20
68.26445108658274
 30
0.0
 10
59.00999356105955
 20
68.32151936814252
 30
0.0
 10
59.01439858583308
 20
68.40309245559631
 30
0.0
 10
59.11500175064541
 20
68.46216109980683
 30
0.0
 10
59.19548354257091
 20
68.49389809822495
 30
0.0
 10
59.20717448328617
 20
68.49850827598203
 30
0.0
  0
SPLINE
  5
14C
330
1F
100
AcDbEntity
  8
0
  6
Continuous
 62
     7
370
    15
100
AcDbSpline
210
0.0
220
0.0
230
1.0
 70
     8
 71
     3
 72
    10
 73
     6
 74
     0
 42
0.000000001
 43
0.00000001
 40
0.0
 40
0.0
 40
0.0
 40
0.0
 40
0.5
 40
0.5
 40
1.0
 40
1.0
 40
1.0
 40
1.0
 10
60.28808956478004
 20
68.22415114071131
 30
0.0
 10
60.10380860503754
 20
68.25114542996874
 30
0.0
 10
59.92257850741595
 20
68.29273105359454
 30
0.0
 10
59.56266687380835
 20
68.38787956457404
 30
0.0
 10
59.38444088495611
 20
68.44171207825795
 30
0.0
 10
59.20717459360691
 20
68.49850827556838
 30
0.0
  0
SPLINE
  5
14D
330
1F
100
AcDbEntity
  8
0
  6
Continuous
 62
     7
370
    15
100
AcDbSpline
210
0.0
220
0.0
230
1.0
 70
     8
 71
     3
 72
    13
 73
     9
 74
     0
 42
0.000000001
 43
0.00000001
 40
0.0
 40
0.0
 40
0.0
 40
0.0
 40
0.0316306985640718
 40
0.2669095049664401
 40
0.5090161660520763
 40
0.7442115777223612
 40
0.9862218564603432
 40
0.9999999999999999
 40
0.9999999999999999
 40
0.9999999999999999
 40
0.9999999999999999
 10
60.28808958229605
 20
68.22415089004863
 30
0.0
 10
60.2812202007797
 20
68.22145310939742
 30
0.0
 10
60.22325425936237
 20
68.1986884114674
 30
0.0
 10
60.12591864663656
 20
68.15542111951422
 30
0.0
 10
60.02320347308325
 20
68.09487249953372
 30
0.0
 10
59.96286972836963
 20
68.03343646302237
 30
0.0
 10
59.93776276892351
 20
67.99133647117716
 30
0.0
 10
59.9444816319013
 20
67.96959215313703
 30
0.0
 10
59.94484354608688
 20
67.96842088693012
 30
0.0
  0
SPLINE
  5
14E
330
1F
100
AcDbEntity
  8
0
  6
Continuous
 62
     7
370
    15
100
AcDbSpline
210
0.0
220
0.0
230
1.0
 70
     8
 71
     3
 72
    23
 73
    19
 74
     0
 42
0.000000001
 43
0.00000001
 40
0.0
 40
0.0
 40
0.0
 40
0.0
 40
0.0472676422354575
 40
0.1138617447727717
 40
0.182387198810248
 40
0.2489759752186604
 40
0.3174954072106358
 40
0.3840938259050422
 40
0.4526242096438283
 40
0.5192098055627372
 40
0.5877254235360875
 40
0.654327294955977
 40
0.7228616114812605
 40
0.7894442995610221
 40
0.8579565237961269
 40
0.924560788896487
 40
0.9931080829470176
 40
1.0
 40
1.0
 40
1.0
 40
1.0
 10
62.43303990789685
 20
66.67219215774168
 30
0.0
 10
62.40370345529633
 20
66.65792416412319
 30
0.0
 10
62.33303566818946
 20
66.62355438025038
 30
0.0
 10
62.18190340929018
 20
66.56847319383745
 30
0.0
 10
61.99255365077416
 20
66.50802122483253
 30
0.0
 10
61.77894596934669
 20
66.44678989488854
 30
0.0
 10
61.55305856818976
 20
66.3857601785173
 30
0.0
 10
61.31705889388761
 20
66.32440277215193
 30
0.0
 10
61.0824235222363
 20
66.26393708715739
 30
0.0
 10
60.85217445349118
 20
66.2026375415555
 30
0.0
 10
60.63738674472665
 20
66.14157273491989
 30
0.0
 10
60.44052950232298
 20
66.08034033415913
 30
0.0
 10
60.27109217072979
 20
66.01983607409575
 30
0.0
 10
60.13162331311577
 20
65.95848907593455
 30
0.0
 10
60.02737040688212
 20
65.89732670186096
 30
0.0
 10
59.96475276464225
 20
65.8365741603146
 30
0.0
 10
59.93840318681584
 20
65.79498331442252
 30
0.0
 10
59.94499458167019
 20
65.77330052028721
 30
0.0
 10
59.9455967532191
 20
65.77131964036454
 30
0.0
  0
SPLINE
  5
14F
330
1F
100
AcDbEntity
  8
0
  6
Continuous
 62
     7
370
    15
100
AcDbSpline
210
0.0
220
0.0
230
1.0
 70
     8
 71
     3
 72
     8
 73
     4
 74
     0
 42
0.000000001
 43
0.00000001
 40
0.0
 40
0.0
 40
0.0
 40
0.0
 40
1.0
 40
1.0
 40
1.0
 40
1.0
 10
60.09000744675931
 20
66.50887515479401
 30
0.0
 10
60.1246235831815
 20
66.59489158009627
 30
0.0
 10
60.15638838054292
 20
66.67382270820255
 30
0.0
 10
60.17472841421124
 20
66.71939521568378
 30
0.0
  0
SPLINE
  5
150
330
1F
100
AcDbEntity
  8
0
  6
Continuous
 62
     7
370
    15
100
AcDbSpline
210
0.0
220
0.0
230
1.0
 70
     8
 71
     3
 72
    11
 73
     7
 74
     0
 42
0.000000001
 43
0.00000001
 40
0.0
 40
0.0
 40
0.0
 40
0.0
 40
0.0004444026507116
 40
0.0004444026507116
 40
0.0004444026507116
 40
0.0008889028217557
 40
0.0008889028217557
 40
0.0008889028217557
 40
0.0008889028217557
 10
59.37475238799195
 20
66.35314709787421
 30
0.0
 10
59.50835618598497
 20
66.4129409221886
 30
0.0
 10
59.64190194777859
 20
66.47320043590918
 30
0.0
 10
59.77526170784307
 20
66.53414950065908
 30
0.0
 10
59.90864995381062
 20
66.59511158424729
 30
0.0
 10
60.04185516563717
 20
66.65677726955019
 30
0.0
 10
60.17472841421105
 20
66.7193952156838
 30
0.0
  0
LINE
  5
151
330
1F
100
AcDbEntity
  8
0
  6
Continuous
 62
     7
370
    15
100
AcDbLine
 10
62.2437466155
 20
60.6536207768
 30
0.0
 11
61.6050062455
 21
60.9181956668
 31
0.0
  0
SPLINE
  5
152
330
1F
100
AcDbEntity
  8
0
  6
Continuous
 62
     7
370
    15
100
AcDbSpline
210
0.0
220
0.0
230
1.0
 70
     8
 71
     3
 72
    14
 73
    10
 74
     0
 42
0.000000001
 43
0.00000001
 40
0.0
 40
0.0
 40
0.0
 40
0.0
 40
0.0778733165836356
 40
0.2340387811357144
 40
0.3938997745500598
 40
0.5557792512687919
 40
0.7248184885352833
 40
0.8993540292549148
 40
1.0
 40
1.0
 40
1.0
 40
1.0
 10
60.92157676915634
 20
62.36499079273273
 30
0.0
 10
60.95196329522469
 20
62.38705414602824
 30
0.0
 10
61.04328630336123
 20
62.45336287075688
 30
0.0
 10
61.25673059022157
 20
62.5628787543973
 30
0.0
 10
61.52456565646973
 20
62.68727335276603
 30
0.0
 10
61.78613091869209
 20
62.81088785394989
 30
0.0
 10
61.99745759559845
 20
62.93799645747633
 30
0.0
 10
62.12833527443877
 20
63.04442706125923
 30
0.0
 10
62.13965310769239
 20
63.10705685528854
 30
0.0
 10
62.1437925366405
 20
63.1299633230381
 30
0.0
  0
SPLINE
  5
153
330
1F
100
AcDbEntity
  8
0
  6
Continuous
 62
     7
370
    15
100
AcDbSpline
210
0.0
220
0.0
230
1.0
 70
     8
 71
     3
 72
    17
 73
    13
 74
     0
 42
0.000000001
 43
0.00000001
 40
0.0
 40
0.0
 40
0.0
 40
0.0
 40
0.0701032239739845
 40
0.1608730728973072
 40
0.2541606639556864
 40
0.3470201820294203
 40
0.4424844907906025
 40
0.5369868314732806
 40
0.6341084495237074
 40
0.7308108970798152
 40
0.8302310307747682
 40
1.0
 40
1.0
 40
1.0
 40
1.0
 10
60.35738976073447
 20
64.46983592354883
 30
0.0
 10
60.38785579893116
 20
64.48500725082232
 30
0.0
 10
60.45776934792183
 20
64.51982245474682
 30
0.0
 10
60.60094169466095
 20
64.5738945341187
 30
0.0
 10
60.77577835380129
 20
64.63258362053442
 30
0.0
 10
60.9721480433622
 20
64.69175475537693
 30
0.0
 10
61.18134357314955
 20
64.75007164559673
 30
0.0
 10
61.39959991301176
 20
64.80866101543293
 30
0.0
 10
61.61849609214547
 20
64.86721090267373
 30
0.0
 10
61.83354985455048
 20
64.92624857969577
 30
0.0
 10
62.08848962529857
 20
64.99849436718611
 30
0.0
 10
62.24101691566016
 20
65.05114840216018
 30
0.0
 10
62.3372110059205
 20
65.08435562023152
 30
0.0
  0
SPLINE
  5
154
330
1F
100
AcDbEntity
  8
0
  6
Continuous
 62
     7
370
    15
100
AcDbSpline
210
0.0
220
0.0
230
1.0
 70
     8
 71
     3
 72
    11
 73
     7
 74
     0
 42
0.000000001
 43
0.00000001
 40
0.0
 40
0.0
 40
0.0
 40
0.0
 40
0.2513818976066075
 40
0.5100536218573923
 40
0.7614371699149926
 40
1.0
 40
1.0
 40
1.0
 40
1.0
 10
62.3372110059205
 20
65.08435562023152
 30
0.0
 10
62.3835680260057
 20
65.1063269620776
 30
0.0
 10
62.47762637395393
 20
65.15090679297379
 30
0.0
 10
62.57274034465362
 20
65.21695930641488
 30
0.0
 10
62.63354640687093
 20
65.28187336589012
 30
0.0
 10
62.63937950243856
 20
65.3246414168725
 30
0.0
 10
62.64221973118368
 20
65.34546587386359
 30
0.0
  0
SPLINE
  5
155
330
1F
100
AcDbEntity
  8
0
  6
Continuous
 62
     7
370
    15
100
AcDbSpline
210
0.0
220
0.0
230
1.0
 70
     8
 71
     3
 72
    22
 73
    18
 74
     0
 42
0.000000001
 43
0.00000001
 40
0.0
 40
0.0
 40
0.0
 40
0.0
 40
0.0657598552726377
 40
0.1322507518837876
 40
0.2006681547888295
 40
0.2671809254266861
 40
0.3356239234223949
 40
0.4021164215050665
 40
0.4705357071613456
 40
0.5370463320875746
 40
0.6054868514397386
 40
0.6719823321693383
 40
0.7404050745942645
 40
0.8069130360052403
 40
0.8753504414428686
 40
0.9418498494808677
 40
1.0
 40
1.0
 40
1.0
 40
1.0
 10
60.14931658149693
 20
66.73407668017973
 30
0.0
 10
60.19271938585684
 20
66.7538601618266
 30
0.0
 10
60.28000749631062
 20
66.79364705478476
 30
0.0
 10
60.45231973828415
 20
66.854422424481
 30
0.0
 10
60.64802515729386
 20
66.91524115366633
 30
0.0
 10
60.8660302581869
 20
66.9762705137485
 30
0.0
 10
61.09473118095138
 20
67.03698149390276
 30
0.0
 10
61.33150230012642
 20
67.09860395808627
 30
0.0
 10
61.56507607365455
 20
67.15930166944125
 30
0.0
 10
61.79259494526048
 20
67.22035200928403
 30
0.0
 10
62.0029329524807
 20
67.28113620840398
 30
0.0
 10
62.19354827161084
 20
67.34277088492458
 30
0.0
 10
62.35532439736501
 20
67.40335486979365
 30
0.0
 10
62.48655594935328
 20
67.46444721441307
 30
0.0
 10
62.57945239276486
 20
67.52530784379611
 30
0.0
 10
62.63525880145572
 20
67.58380049582236
 30
0.0
 10
62.6392129232957
 20
67.6212525775378
 30
0.0
 10
62.64105755702588
 20
67.63872431361307
 30
0.0
  0
SPLINE
  5
156
330
1F
100
AcDbEntity
  8
0
  6
Continuous
 62
     7
370
    15
100
AcDbSpline
210
0.0
220
0.0
230
1.0
 70
     8
 71
     3
 72
    14
 73
    10
 74
     0
 42
0.000000001
 43
0.00000001
 40
0.0
 40
0.0
 40
0.0
 40
0.0
 40
0.0002869114730783
 40
0.0002869114730783
 40
0.0002869114730783
 40
0.0007173857790547
 40
0.0007173857790547
 40
0.0007173857790547
 40
0.0011401160332828
 40
0.0011401160332828
 40
0.0011401160332828
 40
0.0011401160332828
 10
59.20717459360693
 20
68.49850827556824
 30
0.0
 10
59.2943282431409
 20
68.53716665704425
 30
0.0
 10
59.38141704524969
 20
68.57604381314673
 30
0.0
 10
59.46840135990168
 20
68.6152129217392
 30
0.0
 10
59.59890754633359
 20
68.673979965071
 30
0.0
 10
59.72919008896482
 20
68.7333989924251
 30
0.0
 10
59.85904751509784
 20
68.79383758212329
 30
0.0
 10
59.98656651604694
 20
68.85318781573405
 30
0.0
 10
60.11368195522354
 20
68.91354141632524
 30
0.0
 10
60.24013515366017
 20
68.97532524430348
 30
0.0
  0
SPLINE
  5
157
330
1F
100
AcDbEntity
  8
0
  6
Continuous
 62
     7
370
    15
100
AcDbSpline
210
0.0
220
0.0
230
1.0
 70
     8
 71
     3
 72
    14
 73
    10
 74
     0
 42
0.000000001
 43
0.00000001
 40
0.0
 40
0.0
 40
0.0
 40
0.0
 40
0.0002736249782611
 40
0.0002736249782611
 40
0.0002736249782611
 40
0.0005472502409344
 40
0.0005472502409344
 40
0.0005472502409344
 40
0.0010146944390388
 40
0.0010146944390388
 40
0.0010146944390388
 40
0.0010146944390388
 10
61.0378960101953
 20
68.86425018310698
 30
0.0
 10
61.0521808355422
 20
68.89974604542452
 30
0.0
 10
61.06649279911523
 20
68.93530931036436
 30
0.0
 10
61.08084403566795
 20
68.97097019556183
 30
0.0
 10
61.09519528069486
 20
69.00663110181654
 30
0.0
 10
61.1095854870233
 20
69.04238882164518
 30
0.0
 10
61.12403509560534
 20
69.0782941480538
 30
0.0
 10
61.14871967595891
 20
69.13963199743725
 30
0.0
 10
61.17356101624156
 20
69.20135937407946
 30
0.0
 10
61.19879770416694
 20
69.26406913623586
 30
0.0
  0
SPLINE
  5
158
330
1F
100
AcDbEntity
  8
0
  6
Continuous
 62
     7
370
    15
100
AcDbSpline
210
0.0
220
0.0
230
1.0
 70
     8
 71
     3
 72
    16
 73
    12
 74
     0
 42
0.000000001
 43
0.00000001
 40
0.0
 40
0.0
 40
0.0
 40
0.0
 40
0.1613087070587381
 40
0.2660028771756994
 40
0.3737307676274083
 40
0.4784542454843754
 40
0.5862164023969524
 40
0.6909151174835243
 40
0.798648184535518
 40
0.9033675538200394
 40
1.0
 40
1.0
 40
1.0
 40
1.0
 10
61.19879770279625
 20
69.26406940215458
 30
0.0
 10
61.31849519293817
 20
69.2949329502314
 30
0.0
 10
61.51587993024727
 20
69.34582786308499
 30
0.0
 10
61.78201263598373
 20
69.41773507375856
 30
0.0
 10
61.99319639008083
 20
69.47844873616614
 30
0.0
 10
62.18512467647869
 20
69.53949516398069
 30
0.0
 10
62.34828344755416
 20
69.6002723712482
 30
0.0
 10
62.48105350635162
 20
69.66190736305215
 30
0.0
 10
62.57587376840629
 20
69.72250389512219
 30
0.0
 10
62.63417761811757
 20
69.7814561650206
 30
0.0
 10
62.63932607257812
 20
69.82010830408205
 30
0.0
 10
62.6417969107348
 20
69.83865817778934
 30
0.0
  0
SPLINE
  5
159
330
1F
100
AcDbEntity
  8
0
  6
Continuous
 62
     7
370
    15
100
AcDbSpline
210
0.0
220
0.0
230
1.0
 70
     8
 71
     3
 72
    14
 73
    10
 74
     0
 42
0.000000001
 43
0.00000001
 40
0.0
 40
0.0
 40
0.0
 40
0.0
 40
0.0002944100908576
 40
0.0002944100908576
 40
0.0002944100908576
 40
0.0007361433835001
 40
0.0007361433835001
 40
0.0007361433835001
 40
0.0011687965049925
 40
0.0011687965049925
 40
0.0011687965049925
 40
0.0011687965049925
 10
59.16027882450075
 20
70.6798346988763
 30
0.0
 10
59.25004481128681
 20
70.71949383280717
 30
0.0
 10
59.33971964632271
 20
70.75936426149318
 30
0.0
 10
59.42926369906963
 20
70.79951769180586
 30
0.0
 10
59.56361270098116
 20
70.85976260054456
 30
0.0
 10
59.69767925285758
 20
70.92064036917905
 30
0.0
 10
59.83126727809648
 20
70.98250003667754
 30
0.0
 10
59.96210707680574
 20
71.04308710224161
 30
0.0
 10
60.09249268793543
 20
71.10464043937358
 30
0.0
 10
60.22219474147574
 20
71.16752022839535
 30
0.0
  0
SPLINE
  5
15A
330
1F
100
AcDbEntity
  8
0
  6
Continuous
 62
     7
370
    15
100
AcDbSpline
210
0.0
220
0.0
230
1.0
 70
     8
 71
     3
 72
    12
 73
     8
 74
     0
 42
0.000000001
 43
0.00000001
 40
0.0
 40
0.0
 40
0.0
 40
0.0
 40
0.179245129457611
 40
0.3844340833622131
 40
0.5955769628105106
 40
0.8007156709454731
 40
1.0
 40
1.0
 40
1.0
 40
1.0
 10
62.19746238651681
 20
71.7456156551205
 30
0.0
 10
62.24563318866208
 20
71.76313043221839
 30
0.0
 10
62.34894700379094
 20
71.80069506395648
 30
0.0
 10
62.47526637731736
 20
71.85863882456503
 30
0.0
 10
62.5723022761672
 20
71.91940665703697
 30
0.0
 10
62.63302017814623
 20
71.97989127147875
 30
0.0
 10
62.63946159653286
 20
72.01932092801164
 30
0.0
 10
62.64263568312857
 20
72.0387503668033
 30
0.0
  0
SPLINE
  5
15B
330
1F
100
AcDbEntity
  8
0
  6
Continuous
 62
     7
370
    15
100
AcDbSpline
210
0.0
220
0.0
230
1.0
 70
     8
 71
     3
 72
     9
 73
     5
 74
     0
 42
0.000000001
 43
0.00000001
 40
0.0
 40
0.0
 40
0.0
 40
0.0
 40
0.4271570895642311
 40
0.9999999999999999
 40
0.9999999999999999
 40
0.9999999999999999
 40
0.9999999999999999
 10
60.15883691010061
 20
73.33755792820085
 30
0.0
 10
60.19204762052541
 20
73.35337795822441
 30
0.0
 10
60.26979585703175
 20
73.39041358378245
 30
0.0
 10
60.37660754639563
 20
73.42716907386266
 30
0.0
 10
60.43779386539939
 20
73.4482241957747
 30
0.0
  0
SPLINE
  5
15C
330
1F
100
AcDbEntity
  8
0
  6
Continuous
 62
     7
370
    15
100
AcDbSpline
210
0.0
220
0.0
230
1.0
 70
     8
 71
     3
 72
    14
 73
    10
 74
     0
 42
0.000000001
 43
0.00000001
 40
0.0
 40
0.0
 40
0.0
 40
0.0
 40
0.0005472693966091
 40
0.0005472693966091
 40
0.0005472693966091
 40
0.0009577449248585
 40
0.0009577449248585
 40
0.0009577449248585
 40
0.0013555164697308
 40
0.0013555164697308
 40
0.0013555164697308
 40
0.0013555164697308
 10
59.20593013450969
 20
72.89801835300067
 30
0.0
 10
59.37245670873128
 20
72.97115726947312
 30
0.0
 10
59.53864726232235
 20
73.04480775921608
 30
0.0
 10
59.70445061135651
 20
73.1189801738214
 30
0.0
 10
59.82881240923297
 20
73.17461363892863
 30
0.0
 10
59.95295033419694
 20
73.23056736807462
 30
0.0
 10
60.07700428898826
 20
73.28649979941324
 30
0.0
 10
60.19721881432242
 20
73.3407011402368
 30
0.0
 10
60.31735531031684
 20
73.39489479130596
 30
0.0
 10
60.43779387175419
 20
73.44822414235341
 30
0.0
  0
SPLINE
  5
15D
330
1F
100
AcDbEntity
  8
0
  6
Continuous
 62
     7
370
    15
100
AcDbSpline
210
0.0
220
0.0
230
1.0
 70
     8
 71
     3
 72
    16
 73
    12
 74
     0
 42
0.000000001
 43
0.00000001
 40
0.0
 40
0.0
 40
0.0
 40
0.0
 40
0.0893829666454564
 40
0.178766554695285
 40
0.3063854477542762
 40
0.4340038469459298
 40
0.561656699517428
 40
0.6892753802240983
 40
0.8168942024253731
 40
0.9445443497852473
 40
1.0
 40
1.0
 40
1.0
 40
1.0
 10
61.98235225032079
 20
71.211096101936
 30
0.0
 10
62.08583638817888
 20
71.2280072264829
 30
0.0
 10
62.29280538333295
 20
71.26182959314548
 30
0.0
 10
62.61961843760454
 20
71.31977462989009
 30
0.0
 10
62.94758149036112
 20
71.3850712481018
 30
0.0
 10
63.2385108922475
 20
71.45758820085297
 30
0.0
 10
63.44725853993037
 20
71.53007230782856
 30
0.0
 10
63.56712538745543
 20
71.6025953794221
 30
0.0
 10
63.5815950670509
 20
71.67511727066449
 30
0.0
 10
63.53071632879491
 20
71.73394114575139
 30
0.0
 10
63.44343667202217
 20
71.76861920662296
 30
0.0
 10
63.41700304632071
 20
71.77912184738744
 30
0.0
  0
SPLINE
  5
15E
330
1F
100
AcDbEntity
  8
0
  6
Continuous
 62
     7
370
    15
100
AcDbSpline
210
0.0
220
0.0
230
1.0
 70
     8
 71
     3
 72
    11
 73
     7
 74
     0
 42
0.000000001
 43
0.00000001
 40
0.0
 40
0.0
 40
0.0
 40
0.0
 40
0.2221622735276097
 40
0.4935571671772997
 40
0.7649524212073553
 40
1.0
 40
1.0
 40
1.0
 40
1.0
 10
59.16015666310671
 20
72.63090202355016
 30
0.0
 10
59.11911716119923
 20
72.65068107488223
 30
0.0
 10
59.0279435340023
 20
72.69462234533243
 30
0.0
 10
59.0003099196101
 20
72.76274877842881
 30
0.0
 10
59.05379013984605
 20
72.83203697005146
 30
0.0
 10
59.15770282737442
 20
72.87710270502889
 30
0.0
 10
59.20593023632649
 20
72.89801837646593
 30
0.0
  0
SPLINE
  5
15F
330
1F
100
AcDbEntity
  8
0
  6
Continuous
 62
     7
370
    15
100
AcDbSpline
210
0.0
220
0.0
230
1.0
 70
     8
 71
     3
 72
    14
 73
    10
 74
     0
 42
0.000000001
 43
0.00000001
 40
0.0
 40
0.0
 40
0.0
 40
0.0
 40
0.000547254484055
 40
0.000547254484055
 40
0.000547254484055
 40
0.0009309438276229
 40
0.0009309438276229
 40
0.0009309438276229
 40
0.0013040797358411
 40
0.0013040797358411
 40
0.0013040797358411
 40
0.0013040797358411
 10
61.98235232141253
 20
71.21109646568279
 30
0.0
 10
62.01179507561596
 20
71.28425773465705
 30
0.0
 10
62.04146580574809
 20
71.35798559560699
 30
0.0
 10
62.0714518797999
 20
71.43249694104796
 30
0.0
 10
62.09247571506745
 20
71.4847383331491
 30
0.0
 10
62.11365940943539
 20
71.53737695353128
 30
0.0
 10
62.13498641765079
 20
71.59037168947486
 30
0.0
 10
62.15572690504782
 20
71.64190900037407
 30
0.0
 10
62.17661795804602
 20
71.69382044646349
 30
0.0
 10
62.1974624036455
 20
71.74561607945982
 30
0.0
  0
SPLINE
  5
160
330
1F
100
AcDbEntity
  8
0
  6
Continuous
 62
     7
370
    15
100
AcDbSpline
210
0.0
220
0.0
230
1.0
 70
     8
 71
     3
 72
    10
 73
     6
 74
     0
 42
0.000000001
 43
0.00000001
 40
0.0
 40
0.0
 40
0.0
 40
0.0
 40
0.5
 40
0.5
 40
1.0
 40
1.0
 40
1.0
 40
1.0
 10
60.31782284721449
 20
72.63551355253364
 30
0.0
 10
60.1278567979717
 20
72.65534350937047
 30
0.0
 10
59.94131928098787
 20
72.69413748206071
 30
0.0
 10
59.5710241208952
 20
72.78660279424231
 30
0.0
 10
59.38792518382668
 20
72.8405928992529
 30
0.0
 10
59.20593013450969
 20
72.89801835300065
 30
0.0
  0
SPLINE
  5
161
330
1F
100
AcDbEntity
  8
0
  6
Continuous
 62
     7
370
    15
100
AcDbSpline
210
0.0
220
0.0
230
1.0
 70
     8
 71
     3
 72
    12
 73
     8
 74
     0
 42
0.000000001
 43
0.00000001
 40
0.0
 40
0.0
 40
0.0
 40
0.0
 40
0.0947163740000316
 40
0.319966858394556
 40
0.5517544446963246
 40
0.7769228321458077
 40
1.0
 40
1.0
 40
1.0
 40
1.0
 10
60.3178228703979
 20
72.63551393293966
 30
0.0
 10
60.29590463782118
 20
72.62707855932186
 30
0.0
 10
60.22186138929975
 20
72.59858253606967
 30
0.0
 10
60.11433491222643
 20
72.54964968011599
 30
0.0
 10
60.01668136461917
 20
72.48904763222433
 30
0.0
 10
59.95491399004572
 20
72.4282419267839
 30
0.0
 10
59.94796036409115
 20
72.38829972383304
 30
0.0
 10
59.94449977164152
 20
72.36842179441084
 30
0.0
  0
SPLINE
  5
162
330
1F
100
AcDbEntity
  8
0
  6
Continuous
 62
     7
370
    15
100
AcDbSpline
210
0.0
220
0.0
230
1.0
 70
     8
 71
     3
 72
    11
 73
     7
 74
     0
 42
0.000000001
 43
0.00000001
 40
0.0
 40
0.0
 40
0.0
 40
0.0
 40
0.2078914339191818
 40
0.5090194440607092
 40
0.8188834046185518
 40
1.0
 40
1.0
 40
1.0
 40
1.0
 10
62.41837844585064
 20
71.06516064846147
 30
0.0
 10
62.38908256303892
 20
71.05126639959732
 30
0.0
 10
62.31735197895005
 20
71.0172465138371
 30
0.0
 10
62.16449884719052
 20
70.96269235951104
 30
0.0
 10
61.99869300581538
 20
70.91017336738534
 30
0.0
 10
61.88514416767726
 20
70.8775127085301
 30
0.0
 10
61.84325741936448
 20
70.86546459936729
 30
0.0
  0
SPLINE
  5
163
330
1F
100
AcDbEntity
  8
0
  6
Continuous
 62
     7
370
    15
100
AcDbSpline
210
0.0
220
0.0
230
1.0
 70
    24
 71
     3
 72
    14
 73
    10
 74
     0
 42
0.000000001
 43
0.00000001
 40
0.0000070379438251
 40
0.0000070379438251
 40
0.0000070379438251
 40
0.0000070379438251
 40
0.0002736606434406
 40
0.0002736606434406
 40
0.0002736606434406
 40
0.0005472843284437
 40
0.0005472843284437
 40
0.0005472843284437
 40
0.0010179643281605
 40
0.0010179643281605
 40
0.0010179643281605
 40
0.0010179643281605
 10
61.84325740284115
 20
70.86546447554348
 30
0.0
 10
61.85426209371938
 20
70.89280964657463
 30
0.0
 10
61.86584201526011
 20
70.92158418813851
 30
0.0
 10
61.87773050675175
 20
70.95112548436737
 30
0.0
 10
61.88993172378289
 20
70.9814438613392
 30
0.0
 10
61.90246790926801
 20
71.012594589692
 30
0.0
 10
61.91520195495427
 20
71.04423697393179
 30
0.0
 10
61.93710650831008
 20
71.09866683157188
 30
0.0
 10
61.95959210840786
 20
71.15454051191557
 30
0.0
 10
61.98235226736176
 20
71.2110964339471
 30
0.0
  0
LINE
  5
164
330
1F
100
AcDbEntity
  8
0
  6
Continuous
 62
     7
370
    15
100
AcDbLine
 10
62.9437465906
 20
106.8938013329
 30
0.0
 11
59.6437466085
 21
106.8938013329
 31
0.0
  0
LINE
  5
165
330
1F
100
AcDbEntity
  8
0
  6
Continuous
 62
     7
370
    15
100
AcDbLine
 10
59.3954411089
 20
108.1338014617
 30
0.0
 11
59.2146923519
 21
108.1338014617
 31
0.0
  0
LINE
  5
166
330
1F
100
AcDbEntity
  8
0
  6
Continuous
 62
     7
370
    15
100
AcDbLine
 10
60.4120686986
 20
95.3968886449
 30
0.0
 11
60.1511657225
 21
95.8130221977
 31
0.0
  0
SPLINE
  5
167
330
1F
100
AcDbEntity
  8
0
  6
Continuous
 62
     7
370
    15
100
AcDbSpline
210
0.0
220
0.0
230
1.0
 70
     8
 71
     3
 72
    10
 73
     6
 74
     0
 42
0.000000001
 43
0.00000001
 40
0.2380952380952381
 40
0.2380952380952381
 40
0.2380952380952381
 40
0.2380952380952381
 40
0.5
 40
0.5
 40
0.7619047619047619
 40
0.7619047619047619
 40
0.7619047619047619
 40
0.7619047619047619
 10
60.15116577045689
 20
95.81302205436212
 30
0.0
 10
60.69645507291704
 20
96.62976034696746
 30
0.0
 10
61.44924619812248
 20
97.44102205436556
 30
0.0
 10
62.68225840433154
 20
99.06902205435871
 30
0.0
 10
63.13781674435376
 20
99.88028376176536
 30
0.0
 10
63.22229317931861
 20
100.6970220543621
 30
0.0
  0
SPLINE
  5
168
330
1F
100
AcDbEntity
  8
0
  6
Continuous
 62
     7
370
    15
100
AcDbSpline
210
0.0
220
0.0
230
1.0
 70
     8
 71
     3
 72
    15
 73
    11
 74
     0
 42
0.000000001
 43
0.00000001
 40
0.0
 40
0.0
 40
0.0
 40
0.0
 40
0.0230040458782413
 40
0.1597114308410041
 40
0.2964174081099963
 40
0.4306688936473483
 40
0.5649216380789023
 40
0.703082699910884
 40
0.8412462103140056
 40
0.9999999999999999
 40
0.9999999999999999
 40
0.9999999999999999
 40
0.9999999999999999
 10
62.05681713630441
 20
98.13756236576666
 30
0.0
 10
62.04579006422919
 20
98.11651441301802
 30
0.0
 10
61.96923181580447
 20
97.97038365551771
 30
0.0
 10
61.80817796064105
 20
97.69952143811156
 30
0.0
 10
61.57986827874223
 20
97.32747075262066
 30
0.0
 10
61.3436721905793
 20
96.95789278749395
 30
0.0
 10
61.10591783959592
 20
96.58689364544018
 30
0.0
 10
60.87179500990265
 20
96.21175566688083
 30
0.0
 10
60.6341239200619
 20
95.81364957272167
 30
0.0
 10
60.4894317543736
 20
95.54208630649909
 30
0.0
 10
60.41206869862038
 20
95.39688864493002
 30
0.0
  0
LINE
  5
169
330
1F
100
AcDbEntity
  8
0
  6
Continuous
 62
     7
370
    15
100
AcDbLine
 10
63.2222931819
 20
100.6970230653
 30
0.0
 11
62.7819186995
 21
101.1131528928
 31
0.0
  0
LINE
  5
16A
330
1F
100
AcDbEntity
  8
0
  6
Continuous
 62
     7
370
    15
100
AcDbLine
 10
60.1511657225
 20
95.8130221977
 30
0.0
 11
60.2196026813
 21
95.9221769288
 31
0.0
  0
SPLINE
  5
16B
330
1F
100
AcDbEntity
  8
0
  6
Continuous
 62
     7
370
    15
100
AcDbSpline
210
0.0
220
0.0
230
1.0
 70
     8
 71
     3
 72
    20
 73
    16
 74
     0
 42
0.000000001
 43
0.00000001
 40
0.0
 40
0.0
 40
0.0
 40
0.0
 40
0.0243308260440646
 40
0.102975272878181
 40
0.1838729846356561
 40
0.2647709734156524
 40
0.343409672174766
 40
0.4220491069769897
 40
0.5029201830095392
 40
0.5837892779889169
 40
0.6632075522401712
 40
0.7426254174485949
 40
0.8243564250501458
 40
0.906088314482699
 40
1.0
 40
1.0
 40
1.0
 40
1.0
 10
60.54860716552469
 20
96.48064637326826
 30
0.0
 10
60.56880608366505
 20
96.51820267084845
 30
0.0
 10
60.65429389667967
 20
96.67715206223413
 30
0.0
 10
60.82514279143547
 20
96.96069551897803
 30
0.0
 10
61.05534747267657
 20
97.33145779575409
 30
0.0
 10
61.29239767492037
 20
97.70250267613446
 30
0.0
 10
61.52581038364825
 20
98.07070101556666
 30
0.0
 10
61.7533263283182
 20
98.4391569970915
 30
0.0
 10
61.9724502814288
 20
98.81053573421339
 30
0.0
 10
62.17621978129031
 20
99.18256821306099
 30
0.0
 10
62.35672484047748
 20
99.55215258272995
 30
0.0
 10
62.51195169334466
 20
99.92314849217202
 30
0.0
 10
62.63633987002677
 20
100.298289270008
 30
0.0
 10
62.73495202726176
 20
100.6963948714375
 30
0.0
 10
62.76555574908416
 20
100.9679565120397
 30
0.0
 10
62.78191869945261
 20
101.1131528928243
 30
0.0
  0
SPLINE
  5
16C
330
1F
100
AcDbEntity
  8
0
  6
Continuous
 62
     7
370
    15
100
AcDbSpline
210
0.0
220
0.0
230
1.0
 70
     8
 71
     3
 72
     8
 73
     4
 74
     0
 42
0.000000001
 43
0.00000001
 40
0.0
 40
0.0
 40
0.0
 40
0.0
 40
1.0
 40
1.0
 40
1.0
 40
1.0
 10
61.89095930057884
 20
101.869801411022
 30
0.0
 10
61.64337958581184
 20
101.3405201693062
 30
0.0
 10
61.37274607096794
 20
100.8105610779079
 30
0.0
 10
61.10574674918058
 20
100.280889605882
 30
0.0
  0
LINE
  5
16D
330
1F
100
AcDbEntity
  8
0
  6
Continuous
 62
     7
370
    15
100
AcDbLine
 10
61.1057467542
 20
100.2808895125
 30
0.0
 11
61.0501145058
 21
100.6970230653
 31
0.0
  0
SPLINE
  5
16E
330
1F
100
AcDbEntity
  8
0
  6
Continuous
 62
     7
370
    15
100
AcDbSpline
210
0.0
220
0.0
230
1.0
 70
     8
 71
     3
 72
     8
 73
     4
 74
     0
 42
0.000000001
 43
0.00000001
 40
0.7619047619047619
 40
0.7619047619047619
 40
0.7619047619047619
 40
0.7619047619047619
 40
0.919670287860739
 40
0.919670287860739
 40
0.919670287860739
 40
0.919670287860739
 10
61.05011450879759
 20
100.6970220543621
 30
0.0
 10
61.47284017213037
 20
101.1928192092416
 30
0.0
 10
61.80913429590206
 20
101.6791453984153
 30
0.0
 10
62.02988875188099
 20
102.1676331517039
 30
0.0
  0
SPLINE
  5
16F
330
1F
100
AcDbEntity
  8
0
  6
Continuous
 62
     7
370
    15
100
AcDbSpline
210
0.0
220
0.0
230
1.0
 70
     8
 71
     3
 72
     8
 73
     4
 74
     0
 42
0.000000001
 43
0.00000001
 40
0.0
 40
0.0
 40
0.0
 40
0.0
 40
0.0003291341377894
 40
0.0003291341377894
 40
0.0003291341377894
 40
0.0003291341377894
 10
62.02988875267323
 20
102.1676331534571
 30
0.0
 10
61.98335027769495
 20
102.0686318028684
 30
0.0
 10
61.93694522024734
 20
101.9693419697355
 30
0.0
 10
61.89095930057882
 20
101.8698014110219
 30
0.0
  0
LINE
  5
170
330
1F
100
AcDbEntity
  8
0
  6
Continuous
 62
     7
370
    15
100
AcDbLine
 10
61.0501145058
 20
100.6970230653
 30
0.0
 11
61.1057467542
 21
101.1131528928
 31
0.0
  0
SPLINE
  5
171
330
1F
100
AcDbEntity
  8
0
  6
Continuous
 62
     7
370
    15
100
AcDbSpline
210
0.0
220
0.0
230
1.0
 70
     8
 71
     3
 72
     8
 73
     4
 74
     0
 42
0.000000001
 43
0.00000001
 40
0.0
 40
0.0
 40
0.0
 40
0.0
 40
1.0
 40
1.0
 40
1.0
 40
1.0
 10
61.10574674918058
 20
101.1131545028422
 30
0.0
 10
61.32013358005339
 20
101.3664998129007
 30
0.0
 10
61.53426467595512
 20
101.6166334132367
 30
0.0
 10
61.7407432882931
 20
101.869801411022
 30
0.0
  0
SPLINE
  5
172
330
1F
100
AcDbEntity
  8
0
  6
Continuous
 62
     7
370
    15
100
AcDbSpline
210
0.0
220
0.0
230
1.0
 70
     8
 71
     3
 72
     8
 73
     4
 74
     0
 42
0.000000001
 43
0.00000001
 40
0.0
 40
0.0
 40
0.0
 40
0.0
 40
1.0
 40
1.0
 40
1.0
 40
1.0
 10
61.74074328829308
 20
101.8698014110219
 30
0.0
 10
61.83858299218625
 20
101.970103900186
 30
0.0
 10
61.9353781754996
 20
102.0689636205908
 30
0.0
 10
62.02988875267305
 20
102.1676331534566
 30
0.0
  0
SPLINE
  5
173
330
1F
100
AcDbEntity
  8
0
  6
Continuous
 62
     7
370
    15
100
AcDbSpline
210
0.0
220
0.0
230
1.0
 70
     8
 71
     3
 72
    10
 73
     6
 74
     0
 42
0.000000001
 43
0.00000001
 40
0.2380952380952381
 40
0.2380952380952381
 40
0.2380952380952381
 40
0.2380952380952381
 40
0.5
 40
0.5
 40
0.7619047619047619
 40
0.7619047619047619
 40
0.7619047619047619
 40
0.7619047619047619
 10
59.72111900371794
 20
95.81302205436212
 30
0.0
 10
59.32494313542243
 20
96.62976034696771
 30
0.0
 10
59.24296066888378
 20
97.44102205436556
 30
0.0
 10
59.77653269687337
 20
99.06902205435871
 30
0.0
 10
60.38141467034413
 20
99.88028376176541
 30
0.0
 10
61.05011450879759
 20
100.6970220543621
 30
0.0
  0
SPLINE
  5
174
330
1F
100
AcDbEntity
  8
0
  6
Continuous
 62
     7
370
    15
100
AcDbSpline
210
0.0
220
0.0
230
1.0
 70
     8
 71
     3
 72
    10
 73
     6
 74
     0
 42
0.000000001
 43
0.00000001
 40
0.0
 40
0.0
 40
0.0
 40
0.0
 40
0.1621425508679751
 40
0.5520211582252355
 40
1.0
 40
1.0
 40
1.0
 40
1.0
 10
60.52914520126763
 20
100.1408819272481
 30
0.0
 10
60.55728180260671
 20
100.1933713542508
 30
0.0
 10
60.65307404946955
 20
100.3720738239816
 30
0.0
 10
60.8460182280873
 20
100.6964180784152
 30
0.0
 10
61.01525865306356
 20
100.967964597233
 30
0.0
 10
61.10574675416104
 20
101.1131528928243
 30
0.0
  0
LINE
  5
175
330
1F
100
AcDbEntity
  8
0
  6
Continuous
 62
     7
370
    15
100
AcDbLine
 10
59.7937465865
 20
95.7288604393
 30
0.0
 11
59.7211190253
 21
95.8130221977
 31
0.0
  0
SPLINE
  5
176
330
1F
100
AcDbEntity
  8
0
  6
Continuous
 62
     7
370
    15
100
AcDbSpline
210
0.0
220
0.0
230
1.0
 70
     8
 71
     3
 72
    14
 73
    10
 74
     0
 42
0.000000001
 43
0.00000001
 40
0.0
 40
0.0
 40
0.0
 40
0.0
 40
0.1446497715529188
 40
0.289766479108353
 40
0.434416487278431
 40
0.5790477307944737
 40
0.7241346355079803
 40
0.8687606306451151
 40
1.0
 40
1.0
 40
1.0
 40
1.0
 10
61.10574675416104
 20
100.2808895125352
 30
0.0
 10
61.0028771635516
 20
100.1169080382262
 30
0.0
 10
60.79680591464326
 20
99.78841574999497
 30
0.0
 10
60.51099193469445
 20
99.29650931218154
 30
0.0
 10
60.25854745239215
 20
98.80409848227761
 30
0.0
 10
60.05372029257354
 20
98.31093357596227
 30
0.0
 10
59.90336343778942
 20
97.8177096018869
 30
0.0
 10
59.80877774619589
 20
97.34036885784101
 30
0.0
 10
59.80117700498005
 20
97.02784562724904
 30
0.0
 10
59.7975610509235
 20
96.87916675352682
 30
0.0
  0
SPLINE
  5
177
330
1F
100
AcDbEntity
  8
0
  6
Continuous
 62
     7
370
    15
100
AcDbSpline
210
0.0
220
0.0
230
1.0
 70
     8
 71
     3
 72
     8
 73
     4
 74
     0
 42
0.000000001
 43
0.00000001
 40
0.0
 40
0.0
 40
0.0
 40
0.0
 40
0.0003291341377893
 40
0.0003291341377893
 40
0.0003291341377893
 40
0.0003291341377893
 10
59.93576469656955
 20
102.167633153457
 30
0.0
 10
59.9274286502565
 20
102.0686318028684
 30
0.0
 10
59.92144304359074
 20
101.9693419697355
 30
0.0
 10
59.91776077485353
 20
101.8698014110219
 30
0.0
  0
LINE
  5
178
330
1F
100
AcDbEntity
  8
0
  6
Continuous
 62
     7
370
    15
100
AcDbLine
 10
62.7937466126
 20
101.8698003306
 30
0.0
 11
61.890959296
 21
101.8698003306
 31
0.0
  0
LINE
  5
179
330
1F
100
AcDbEntity
  8
0
  6
Continuous
 62
     7
370
    15
100
AcDbLine
 10
61.7407432802
 20
101.8698003306
 30
0.0
 11
59.917760802
 21
101.8698003306
 31
0.0
  0
LINE
  5
17A
330
1F
100
AcDbEntity
  8
0
  6
Continuous
 62
     7
370
    15
100
AcDbLine
 10
62.9437465906
 20
102.8698023572
 30
0.0
 11
59.6437466085
 21
102.8698023572
 31
0.0
  0
SPLINE
  5
17B
330
1F
100
AcDbEntity
  8
0
  6
Continuous
 62
     7
370
    15
100
AcDbSpline
210
0.0
220
0.0
230
1.0
 70
     8
 71
     3
 72
     8
 73
     4
 74
     0
 42
0.000000001
 43
0.00000001
 40
0.0624269578647283
 40
0.0624269578647283
 40
0.0624269578647283
 40
0.0624269578647283
 40
0.2380952380952381
 40
0.2380952380952381
 40
0.2380952380952381
 40
0.2380952380952381
 10
59.83997772485982
 20
94.17601412123996
 30
0.0
 10
59.78468149102632
 20
94.72064702081984
 30
0.0
 10
59.87028837913514
 20
95.26096333930221
 30
0.0
 10
60.15116577045689
 20
95.81302205436212
 30
0.0
  0
SPLINE
  5
17C
330
1F
100
AcDbEntity
  8
0
  6
Continuous
 62
     7
370
    15
100
AcDbSpline
210
0.0
220
0.0
230
1.0
 70
     8
 71
     3
 72
    10
 73
     6
 74
     0
 42
0.000000001
 43
0.00000001
 40
0.0
 40
0.0
 40
0.0
 40
0.0
 40
0.5
 40
0.5
 40
1.0
 40
1.0
 40
1.0
 40
1.0
 10
60.41206872108832
 20
95.39688960588201
 30
0.0
 10
60.27100448049845
 20
95.19246369559403
 30
0.0
 10
60.14930595189837
 20
94.98703642247064
 30
0.0
 10
59.955114966801
 20
94.58048855487266
 30
0.0
 10
59.88307461181316
 20
94.37997293332113
 30
0.0
 10
59.83997772485846
 20
94.17601412125381
 30
0.0
  0
SPLINE
  5
17D
330
1F
100
AcDbEntity
  8
0
  6
Continuous
 62
     7
370
    15
100
AcDbSpline
210
0.0
220
0.0
230
1.0
 70
     8
 71
     3
 72
     9
 73
     5
 74
     0
 42
0.000000001
 43
0.00000001
 40
0.0
 40
0.0
 40
0.0
 40
0.0
 40
0.8417367298357699
 40
1.0
 40
1.0
 40
1.0
 40
1.0
 10
62.78191869945261
 20
101.1131528928243
 30
0.0
 10
62.78811727652657
 20
101.1754088587098
 30
0.0
 10
62.79548130954812
 20
101.2493701861402
 30
0.0
 10
62.79287563295618
 20
101.3234938453872
 30
0.0
 10
62.79246325005773
 20
101.3352248980962
 30
0.0
  0
SPLINE
  5
17E
330
1F
100
AcDbEntity
  8
0
  6
Continuous
 62
     7
370
    15
100
AcDbSpline
210
0.0
220
0.0
230
1.0
 70
     8
 71
     3
 72
    11
 73
     7
 74
     0
 42
0.000000001
 43
0.00000001
 40
0.0
 40
0.0
 40
0.0
 40
0.0
 40
0.246634317002251
 40
0.4932695161917797
 40
0.746971132217726
 40
0.9999999999999999
 40
0.9999999999999999
 40
0.9999999999999999
 40
0.9999999999999999
 10
62.50727213785979
 20
96.22915575050939
 30
0.0
 10
62.54996161857415
 20
96.35055783563337
 30
0.0
 10
62.63534073269902
 20
96.59336244012492
 30
0.0
 10
62.72418531281236
 20
96.9607123062772
 30
0.0
 10
62.78279438292048
 20
97.3310947236183
 30
0.0
 10
62.7900654042482
 20
97.5805450273157
 30
0.0
 10
62.79369608831588
 20
97.7051045908891
 30
0.0
  0
SPLINE
  5
17F
330
1F
100
AcDbEntity
  8
0
  6
Continuous
 62
     7
370
    15
100
AcDbSpline
210
0.0
220
0.0
230
1.0
 70
     8
 71
     3
 72
    10
 73
     6
 74
     0
 42
0.000000001
 43
0.00000001
 40
0.0
 40
0.0
 40
0.0
 40
0.0
 40
0.5
 40
0.5
 40
1.0
 40
1.0
 40
1.0
 40
1.0
 10
61.66328152215917
 20
94.17601412125343
 30
0.0
 10
61.83338837537421
 20
94.51801706056648
 30
0.0
 10
61.9939530065221
 20
94.85845018252051
 30
0.0
 10
62.28026904389184
 20
95.54473169628369
 30
0.0
 10
62.40492431427689
 20
95.88645139918198
 30
0.0
 10
62.50727209108945
 20
96.22915450284225
 30
0.0
  0
SPLINE
  5
180
330
1F
100
AcDbEntity
  8
0
  6
Continuous
 62
     7
370
    15
100
AcDbSpline
210
0.0
220
0.0
230
1.0
 70
     8
 71
     3
 72
     9
 73
     5
 74
     0
 42
0.000000001
 43
0.00000001
 40
0.0
 40
0.0
 40
0.0
 40
0.0
 40
0.4757594798695436
 40
1.0
 40
1.0
 40
1.0
 40
1.0
 10
62.2234012918267
 20
94.91416180276502
 30
0.0
 10
62.1423240929082
 20
94.79685128323425
 30
0.0
 10
61.97190773264833
 20
94.55027601885287
 30
0.0
 10
61.76942904640097
 20
94.30473612056664
 30
0.0
 10
61.66328151460733
 20
94.17601415657629
 30
0.0
  0
SPLINE
  5
181
330
1F
100
AcDbEntity
  8
0
  6
Continuous
 62
     7
370
    15
100
AcDbSpline
210
0.0
220
0.0
230
1.0
 70
     8
 71
     3
 72
    11
 73
     7
 74
     0
 42
0.000000001
 43
0.00000001
 40
0.0
 40
0.0
 40
0.0
 40
0.0
 40
0.3237258201873185
 40
0.6486284532413199
 40
0.9770748832313156
 40
1.0
 40
1.0
 40
1.0
 40
1.0
 10
59.91776080203238
 20
101.8698003306352
 30
0.0
 10
59.89343587933944
 20
101.7387727888857
 30
0.0
 10
59.84469760763651
 20
101.4762413921383
 30
0.0
 10
59.80679386917734
 20
101.0800354268621
 30
0.0
 10
59.78987225145779
 20
100.8054953666911
 30
0.0
 10
59.79433941848359
 20
100.6631002206188
 30
0.0
 10
59.79463087727311
 20
100.6538096978628
 30
0.0
  0
LINE
  5
182
330
1F
100
AcDbEntity
  8
0
  6
Continuous
 62
     7
370
    15
100
AcDbLine
 10
62.7937466126
 20
93.8698027446
 30
0.0
 11
59.7937465865
 21
93.8698027446
 31
0.0
  0
LINE
  5
183
330
1F
100
AcDbEntity
  8
0
  6
Continuous
 62
     7
370
    15
100
AcDbLine
 10
62.8663741737
 20
95.8130221977
 30
0.0
 11
62.5072721379
 21
96.2291557505
 31
0.0
  0
SPLINE
  5
184
330
1F
100
AcDbEntity
  8
0
  6
Continuous
 62
     7
370
    15
100
AcDbSpline
210
0.0
220
0.0
230
1.0
 70
     8
 71
     3
 72
     8
 73
     4
 74
     0
 42
0.000000001
 43
0.00000001
 40
0.0624269578647375
 40
0.0624269578647375
 40
0.0624269578647375
 40
0.0624269578647375
 40
0.2380952380952381
 40
0.2380952380952381
 40
0.2380952380952381
 40
0.2380952380952381
 10
61.66328152214994
 20
94.17601412123999
 30
0.0
 10
62.03798044818333
 20
94.72064702081984
 30
0.0
 10
62.4778772122264
 20
95.26096333930235
 30
0.0
 10
62.86637419533614
 20
95.81302205436212
 30
0.0
  0
LINE
  5
185
330
1F
100
AcDbEntity
  8
0
  6
Continuous
 62
     7
370
    15
100
AcDbLine
 10
62.6437466345
 20
92.8698007181
 30
0.0
 11
60.9947497943
 21
92.8698007181
 31
0.0
  0
SPLINE
  5
186
330
1F
100
AcDbEntity
  8
0
  6
Continuous
 62
     7
370
    15
100
AcDbSpline
210
0.0
220
0.0
230
1.0
 70
     8
 71
     3
 72
     8
 73
     4
 74
     0
 42
0.000000001
 43
0.00000001
 40
0.0
 40
0.0
 40
0.0
 40
0.0
 40
1.0
 40
1.0
 40
1.0
 40
1.0
 10
62.26357672593502
 20
71.90990124390648
 30
0.0
 10
62.22078230390682
 20
72.32301581541215
 30
0.0
 10
62.16386749446619
 20
72.7323045327232
 30
0.0
 10
62.07811024138859
 20
73.1356313438314
 30
0.0
  0
SPLINE
  5
187
330
1F
100
AcDbEntity
  8
0
  6
Continuous
 62
     7
370
    15
100
AcDbSpline
210
0.0
220
0.0
230
1.0
 70
     8
 71
     3
 72
    10
 73
     6
 74
     0
 42
0.000000001
 43
0.00000001
 40
0.0
 40
0.0
 40
0.0
 40
0.0
 40
0.5000000000000001
 40
0.5000000000000001
 40
1.0
 40
1.0
 40
1.0
 40
1.0
 10
61.88487165787999
 20
73.84753135485529
 30
0.0
 10
61.8438304215943
 20
73.96570934684166
 30
0.0
 10
61.79786511214419
 20
74.0819222189386
 30
0.0
 10
61.68912690031195
 20
74.30789444726113
 30
0.0
 10
61.62639265004298
 20
74.41904991741694
 30
0.0
 10
61.54709155661838
 20
74.51891391352663
 30
0.0
  0
LWPOLYLINE
  5
188
330
1F
100
AcDbEntity
  8
0
  6
Continuous
 62
     7
370
    15
100
AcDbPolyline
 90
        4
 70
   128
 43
0.0
 10
61.5470915437
 20
74.5189136057
 10
61.3786425603
 20
74.5867036446
 10
61.2088506388
 20
74.6550347819
 10
61.0404016553
 20
74.7228238895
  0
SPLINE
  5
189
330
1F
100
AcDbEntity
  8
0
  6
Continuous
 62
     7
370
    15
100
AcDbSpline
210
0.0
220
0.0
230
1.0
 70
     8
 71
     3
 72
    14
 73
    10
 74
     0
 42
0.000000001
 43
0.00000001
 40
0.0
 40
0.0
 40
0.0
 40
0.0
 40
0.1249999999999989
 40
0.1249999999999989
 40
0.2499999999999979
 40
0.2499999999999979
 40
0.4999999999999986
 40
0.4999999999999986
 40
1.0
 40
1.0
 40
1.0
 40
1.0
 10
61.0404016424357
 20
74.72282435425304
 30
0.0
 10
60.98396049460453
 20
74.69717586414862
 30
0.0
 10
60.93660995892144
 20
74.6589974502768
 30
0.0
 10
60.85210555529559
 20
74.57112038270375
 30
0.0
 10
60.81636153157123
 20
74.52261208401384
 30
0.0
 10
60.71961422218718
 20
74.36960037466741
 30
0.0
 10
60.66960688039386
 20
74.25833532017438
 30
0.0
 10
60.54209478535478
 20
73.92144040073815
 30
0.0
 10
60.48467238646602
 20
73.6865848980279
 30
0.0
 10
60.43779387176588
 20
73.44822414234959
 30
0.0
  0
LWPOLYLINE
  5
18A
330
1F
100
AcDbEntity
  8
0
  6
Continuous
 62
     7
370
    15
100
AcDbPolyline
 90
        4
 70
   128
 43
0.0
 10
62.2635767433
 20
71.9099009573
 10
62.2420229121
 20
71.85634339
 10
62.2199810097
 20
71.801571378
 10
62.1974623865
 20
71.7456156551
  0
SPLINE
  5
18B
330
1F
100
AcDbEntity
  8
0
  6
Continuous
 62
     7
370
    15
100
AcDbSpline
210
0.0
220
0.0
230
1.0
 70
     8
 71
     3
 72
     8
 73
     4
 74
     0
 42
0.000000001
 43
0.00000001
 40
0.0
 40
0.0
 40
0.0
 40
0.0
 40
1.0
 40
1.0
 40
1.0
 40
1.0
 10
60.28808956479205
 20
68.2241511407091
 30
0.0
 10
60.31428899669623
 20
67.90321438144292
 30
0.0
 10
60.34815425232227
 20
67.58331941677405
 30
0.0
 10
60.39418958847659
 20
67.26472660312473
 30
0.0
  0
SPLINE
  5
18C
330
1F
100
AcDbEntity
  8
0
  6
Continuous
 62
     7
370
    15
100
AcDbSpline
210
0.0
220
0.0
230
1.0
 70
     8
 71
     3
 72
     8
 73
     4
 74
     0
 42
0.000000001
 43
0.00000001
 40
0.0
 40
0.0
 40
0.0
 40
0.0
 40
1.0
 40
1.0
 40
1.0
 40
1.0
 10
60.20947660975103
 20
70.39213368378047
 30
0.0
 10
60.2081513794491
 20
69.92035150585204
 30
0.0
 10
60.21775619316249
 20
69.44625943494597
 30
0.0
 10
60.24013515366016
 20
68.97532524430348
 30
0.0
  0
SPLINE
  5
18D
330
1F
100
AcDbEntity
  8
0
  6
Continuous
 62
     7
370
    15
100
AcDbSpline
210
0.0
220
0.0
230
1.0
 70
     8
 71
     3
 72
     8
 73
     4
 74
     0
 42
0.000000001
 43
0.00000001
 40
0.0
 40
0.0
 40
0.0
 40
0.0
 40
1.0
 40
1.0
 40
1.0
 40
1.0
 10
60.31782284721446
 20
72.63551355253337
 30
0.0
 10
60.26490719181219
 20
72.14867296124558
 30
0.0
 10
60.23723979827266
 20
71.65904165672445
 30
0.0
 10
60.22219474147573
 20
71.16752022839535
 30
0.0
  0
LINE
  5
18E
330
1F
100
AcDbEntity
  8
0
  6
Continuous
 62
     7
370
    15
100
AcDbLine
 10
62.3372110059
 20
65.0843556202
 30
0.0
 11
59.9437465645
 21
65.0843556202
 31
0.0
  0
LWPOLYLINE
  5
18F
330
1F
100
AcDbEntity
  8
0
  6
Continuous
 62
     7
370
    15
100
AcDbPolyline
 90
        4
 70
   128
 43
0.0
 10
60.8517436705
 20
68.4016870498
 10
60.6878091568
 20
67.9943312123
 10
60.5344026918
 20
67.6131371572
 10
60.3941895753
 20
67.2647265881
  0
LWPOLYLINE
  5
190
330
1F
100
AcDbEntity
  8
0
  6
Continuous
 62
     7
370
    15
100
AcDbPolyline
 90
        5
 70
   128
 43
0.0
 10
61.8432574194
 20
70.8654645994
 10
61.688588925
 20
70.4811338499
 10
61.528012193
 20
70.0821226626
 10
61.3639300428
 20
69.6744008153
 10
61.1987977028
 20
69.2640694022
  0
LINE
  5
191
330
1F
100
AcDbEntity
  8
0
  6
Continuous
 62
     7
370
    15
100
AcDbLine
 10
61.4578799069
 20
60.3281041392
 30
0.0
 11
61.6050062455
 21
60.9181956668
 31
0.0
  0
SPLINE
  5
192
330
1F
100
AcDbEntity
  8
0
  6
Continuous
 62
     7
370
    15
100
AcDbSpline
210
0.0
220
0.0
230
1.0
 70
     8
 71
     3
 72
    13
 73
     9
 74
     0
 42
0.000000001
 43
0.00000001
 40
0.0
 40
0.0
 40
0.0
 40
0.0
 40
0.1777721043056139
 40
0.3552465265604063
 40
0.5326005479897198
 40
0.7098629312652546
 40
0.8872535884254024
 40
1.0
 40
1.0
 40
1.0
 40
1.0
 10
62.86637417373243
 20
95.81302219771972
 30
0.0
 10
62.94601071951848
 20
95.99573747775523
 30
0.0
 10
63.10515045850208
 20
96.36086207835365
 30
0.0
 10
63.22182806103889
 20
96.9080987655148
 30
0.0
 10
63.24663274198281
 20
97.45444135881029
 30
0.0
 10
63.16515945604515
 20
98.00131554905883
 30
0.0
 10
63.01195183133396
 20
98.48151864560225
 30
0.0
 10
62.85481105577405
 20
98.77967111063282
 30
0.0
 10
62.79374661256555
 20
98.8955322816335
 30
0.0
  0
SPLINE
  5
193
330
1F
100
AcDbEntity
  8
0
  6
Continuous
 62
     7
370
    15
100
AcDbSpline
210
0.0
220
0.0
230
1.0
 70
     8
 71
     3
 72
    10
 73
     6
 74
     0
 42
0.000000001
 43
0.00000001
 40
0.0
 40
0.0
 40
0.0
 40
0.0
 40
0.5
 40
0.5
 40
1.0
 40
1.0
 40
1.0
 40
1.0
 10
57.62551461853766
 20
109.4842241925731
 30
0.0
 10
57.91401695515489
 20
109.2500769813979
 30
0.0
 10
58.20406008471152
 20
109.0180862073345
 30
0.0
 10
58.79141345384817
 20
108.5642754390368
 30
0.0
 10
59.08820037468857
 20
108.3417230271477
 30
0.0
 10
59.39544112545429
 20
108.1338014110219
 30
0.0
  0
LINE
  5
194
330
1F
100
AcDbEntity
  8
0
  6
Continuous
 62
     7
370
    15
100
AcDbLine
 10
59.7937465865
 20
100.2920653834
 30
0.0
 11
59.3652000172
 21
100.6970230653
 31
0.0
  0
SPLINE
  5
195
330
1F
100
AcDbEntity
  8
0
  6
Continuous
 62
     7
370
    15
100
AcDbSpline
210
0.0
220
0.0
230
1.0
 70
     8
 71
     3
 72
     8
 73
     4
 74
     0
 42
0.000000001
 43
0.00000001
 40
0.7619047619047619
 40
0.7619047619047619
 40
0.7619047619047619
 40
0.7619047619047619
 40
0.9196702878607355
 40
0.9196702878607355
 40
0.9196702878607355
 40
0.9196702878607355
 10
59.36520001973546
 20
100.6970220543621
 30
0.0
 10
59.44686161617433
 20
101.1928192092416
 30
0.0
 10
59.66655871094321
 20
101.6791453984153
 30
0.0
 10
59.93576469560357
 20
102.1676331517039
 30
0.0
  0
SPLINE
  5
196
330
1F
100
AcDbEntity
  8
0
  6
Continuous
 62
     7
370
    15
100
AcDbSpline
210
0.0
220
0.0
230
1.0
 70
     8
 71
     3
 72
    11
 73
     7
 74
     0
 42
0.000000001
 43
0.00000001
 40
0.0
 40
0.0
 40
0.0
 40
0.0
 40
0.3541400325295007
 40
0.6980063425211972
 40
0.9626955661980727
 40
1.0
 40
1.0
 40
1.0
 40
1.0
 10
63.22229318187568
 20
100.6970230653249
 30
0.0
 10
63.1936982046442
 20
100.8344600058568
 30
0.0
 10
63.13733780017577
 20
101.1053467946301
 30
0.0
 10
62.98816546926045
 20
101.4906754673042
 30
0.0
 10
62.87109503217587
 20
101.7516077146275
 30
0.0
 10
62.80515272560424
 20
101.8761527044713
 30
0.0
 10
62.79700705648396
 20
101.8915373995267
 30
0.0
  0
SPLINE
  5
197
330
1F
100
AcDbEntity
  8
0
  6
Continuous
 62
     7
370
    15
100
AcDbSpline
210
0.0
220
0.0
230
1.0
 70
     8
 71
     3
 72
    10
 73
     6
 74
     0
 42
0.000000001
 43
0.00000001
 40
0.0
 40
0.0
 40
0.0
 40
0.0
 40
0.174184672280355
 40
0.5867442763763375
 40
1.0
 40
1.0
 40
1.0
 40
1.0
 10
59.79374658648852
 20
99.39464667582143
 30
0.0
 10
59.75262560842162
 20
99.47023081326388
 30
0.0
 10
59.61410883651578
 20
99.72483737220274
 30
0.0
 10
59.45441175657663
 20
100.158956653147
 30
0.0
 10
59.3949539702554
 20
100.5175668313333
 30
0.0
 10
59.36520001717839
 20
100.6970230653249
 30
0.0
  0
LINE
  5
198
330
1F
100
AcDbEntity
  8
0
  6
Continuous
 62
     7
370
    15
100
AcDbLine
 10
59.7937465865
 20
95.7126852288
 30
0.0
 11
59.7211190253
 21
95.8130221977
 31
0.0
  0
LINE
  5
199
330
1F
100
AcDbEntity
  8
0
  6
Continuous
 62
     8
370
    15
100
AcDbLine
 10
64.9821718909
 20
109.4842229202
 30
0.0
 11
64.9706800688
 21
109.4842229202
 31
0.0
  0
LINE
  5
19A
330
1F
100
AcDbEntity
  8
0
  6
Continuous
 62
     8
370
    15
100
AcDbLine
 10
57.4811259504
 20
109.9114839151
 30
0.0
 11
65.1063672486
 21
109.9114839151
 31
0.0
  0
ARC
  5
19B
330
1F
100
AcDbEntity
  8
0
  6
Continuous
 62
     7
370
    15
100
AcDbCircle
 10
34.7252708021
 20
97.1846652134
 30
0.0
 40
0.4000000000000083
100
AcDbArc
 50
162.4161382947
 51
230.0
  0
ARC
  5
19C
330
1F
100
AcDbEntity
  8
0
  6
Continuous
 62
     7
370
    15
100
AcDbCircle
 10
41.58789144
 20
97.1846652134
 30
0.0
 40
0.3999999999999963
100
AcDbArc
 50
310.0
 51
17.5838617053
  0
ARC
  5
19D
330
1F
100
AcDbEntity
  8
0
  6
Continuous
 62
     7
370
    15
100
AcDbCircle
 10
35.1065811211
 20
97.0638246546
 30
0.0
 40
0.8000000000000114
100
AcDbArc
 50
90.0
 51
162.4161382947
  0
ARC
  5
19E
330
1F
100
AcDbEntity
  8
0
  6
Continuous
 62
     7
370
    15
100
AcDbCircle
 10
41.2065811211
 20
97.0638246546
 30
0.0
 40
0.8000000000000114
100
AcDbArc
 50
17.5838617053
 51
90.0
  0
LINE
  5
19F
330
1F
100
AcDbEntity
  8
0
  6
Continuous
 62
     7
370
    15
100
AcDbLine
 10
40.2359273277
 20
95.5280697097
 30
0.0
 11
41.8450064839
 21
96.8782474362
 31
0.0
  0
SPLINE
  5
1A0
330
1F
100
AcDbEntity
  8
0
  6
Continuous
 62
     7
370
    15
100
AcDbSpline
210
0.0
220
0.0
230
1.0
 70
     8
 71
     3
 72
    10
 73
     6
 74
     0
 42
0.000000001
 43
0.00000001
 40
0.0
 40
0.0
 40
0.0
 40
0.0
 40
0.0393719164773778
 40
0.489278800651333
 40
0.9999999999999999
 40
0.9999999999999999
 40
0.9999999999999999
 40
0.9999999999999999
 10
39.22078496410301
 20
84.01188298967125
 30
0.0
 10
39.22814999885311
 20
84.01581745626476
 30
0.0
 10
39.3196760329326
 20
84.06471147180449
 30
0.0
 10
39.51491005381101
 20
84.16088647272365
 30
0.0
 10
39.70377810807562
 20
84.2508488503132
 30
0.0
 10
39.8041904537557
 20
84.29867765541154
 30
0.0
  0
SPLINE
  5
1A1
330
1F
100
AcDbEntity
  8
0
  6
Continuous
 62
     7
370
    15
100
AcDbSpline
210
0.0
220
0.0
230
1.0
 70
     8
 71
     3
 72
     9
 73
     5
 74
     0
 42
0.000000001
 43
0.00000001
 40
0.0
 40
0.0
 40
0.0
 40
0.0
 40
0.4928622394931365
 40
0.9999999999999999
 40
0.9999999999999999
 40
0.9999999999999999
 40
0.9999999999999999
 10
39.2928581223774
 20
81.6849531215786
 30
0.0
 10
39.45527532873925
 20
81.76249001528763
 30
0.0
 10
39.7848140788145
 20
81.919809622058
 30
0.0
 10
40.12422833552183
 20
82.07053235920529
 30
0.0
 10
40.29635812155249
 20
82.14696955057964
 30
0.0
  0
SPLINE
  5
1A2
330
1F
100
AcDbEntity
  8
0
  6
Continuous
 62
     7
370
    15
100
AcDbSpline
210
0.0
220
0.0
230
1.0
 70
     8
 71
     3
 72
     9
 73
     5
 74
     0
 42
0.000000001
 43
0.00000001
 40
0.0
 40
0.0
 40
0.0
 40
0.0
 40
0.4361680915988012
 40
1.0
 40
1.0
 40
1.0
 40
1.0
 10
39.29057090562812
 20
79.48493525075698
 30
0.0
 10
39.43436219748973
 20
79.55392309540694
 30
0.0
 10
39.76403164060404
 20
79.7120911181917
 30
0.0
 10
40.10249817601252
 20
79.86223275602673
 30
0.0
 10
40.29333640860184
 20
79.94688740221774
 30
0.0
  0
SPLINE
  5
1A3
330
1F
100
AcDbEntity
  8
0
  6
Continuous
 62
     7
370
    15
100
AcDbSpline
210
0.0
220
0.0
230
1.0
 70
     8
 71
     3
 72
    11
 73
     7
 74
     0
 42
0.000000001
 43
0.00000001
 40
0.0
 40
0.0
 40
0.0
 40
0.0
 40
0.2953137540853252
 40
0.5616583590927904
 40
0.7971259677360238
 40
1.0
 40
1.0
 40
1.0
 40
1.0
 10
39.29517165482174
 20
77.286220424929
 30
0.0
 10
39.39117777309104
 20
77.33243565744881
 30
0.0
 10
39.5737721768533
 20
77.420332585049
 30
0.0
 10
39.83951349069659
 20
77.5422000348637
 30
0.0
 10
40.07541717882305
 20
77.64858144802577
 30
0.0
 10
40.22260943231807
 20
77.71388804732491
 30
0.0
 10
40.29073320427538
 20
77.74411335995059
 30
0.0
  0
SPLINE
  5
1A4
330
1F
100
AcDbEntity
  8
0
  6
Continuous
 62
     7
370
    15
100
AcDbSpline
210
0.0
220
0.0
230
1.0
 70
     8
 71
     3
 72
     9
 73
     5
 74
     0
 42
0.000000001
 43
0.00000001
 40
0.0
 40
0.0
 40
0.0
 40
0.0
 40
0.4920799042867165
 40
1.0
 40
1.0
 40
1.0
 40
1.0
 10
39.28930343858257
 20
75.08417654103637
 30
0.0
 10
39.45122259410124
 20
75.16180996671685
 30
0.0
 10
39.78027312859397
 20
75.31957586002844
 30
0.0
 10
40.11953376397333
 20
75.47001772955208
 30
0.0
 10
40.29185105836696
 20
75.54643017831981
 30
0.0
  0
SPLINE
  5
1A5
330
1F
100
AcDbEntity
  8
0
  6
Continuous
 62
     7
370
    15
100
AcDbSpline
210
0.0
220
0.0
230
1.0
 70
     8
 71
     3
 72
     9
 73
     5
 74
     0
 42
0.000000001
 43
0.00000001
 40
0.0
 40
0.0
 40
0.0
 40
0.0
 40
0.4412592748195687
 40
0.9999999999999999
 40
0.9999999999999999
 40
0.9999999999999999
 40
0.9999999999999999
 10
39.28871603841998
 20
72.88328295830642
 30
0.0
 10
39.43478140901438
 20
72.95307833175347
 30
0.0
 10
39.76580078680339
 20
73.11125149077792
 30
0.0
 10
40.10413456207483
 20
73.26122581102283
 30
0.0
 10
40.29317542102302
 20
73.34502257147493
 30
0.0
  0
SPLINE
  5
1A6
330
1F
100
AcDbEntity
  8
0
  6
Continuous
 62
     7
370
    15
100
AcDbSpline
210
0.0
220
0.0
230
1.0
 70
     8
 71
     3
 72
    11
 73
     7
 74
     0
 42
0.000000001
 43
0.00000001
 40
0.0
 40
0.0
 40
0.0
 40
0.0
 40
0.2600725313617294
 40
0.5621342150452894
 40
0.9038482052116525
 40
0.9999999999999999
 40
0.9999999999999999
 40
0.9999999999999999
 40
0.9999999999999999
 10
36.02565020657036
 20
74.44392729990993
 30
0.0
 10
36.0938380504842
 20
74.41362059289443
 30
0.0
 10
36.24122278163377
 20
74.34811410949322
 30
0.0
 10
36.47723433130191
 20
74.24115801852457
 30
0.0
 10
36.67059370139596
 20
74.1527822520685
 30
0.0
 10
36.78209609479147
 20
74.09914585945147
 30
0.0
 10
36.80658112106335
 20
74.0873677402348
 30
0.0
  0
SPLINE
  5
1A7
330
1F
100
AcDbEntity
  8
0
  6
Continuous
 62
     7
370
    15
100
AcDbSpline
210
0.0
220
0.0
230
1.0
 70
     8
 71
     3
 72
     9
 73
     5
 74
     0
 42
0.000000001
 43
0.00000001
 40
0.0
 40
0.0
 40
0.0
 40
0.0
 40
0.7163287207249351
 40
1.0
 40
1.0
 40
1.0
 40
1.0
 10
36.0158322755744
 20
76.6474966656387
 30
0.0
 10
36.20666531117809
 20
76.56336141680669
 30
0.0
 10
36.4730695891059
 20
76.44590800973558
 30
0.0
 10
36.73288028779645
 20
76.32214374613358
 30
0.0
 10
36.80658112106335
 20
76.28703537914907
 30
0.0
  0
SPLINE
  5
1A8
330
1F
100
AcDbEntity
  8
0
  6
Continuous
 62
     7
370
    15
100
AcDbSpline
210
0.0
220
0.0
230
1.0
 70
     8
 71
     3
 72
     9
 73
     5
 74
     0
 42
0.000000001
 43
0.00000001
 40
0.0
 40
0.0
 40
0.0
 40
0.0
 40
0.6494403596108085
 40
1.0
 40
1.0
 40
1.0
 40
1.0
 10
36.02567825055092
 20
78.84424330377148
 30
0.0
 10
36.19723036839771
 20
78.76826530990816
 30
0.0
 10
36.46138413603481
 20
78.65127536196461
 30
0.0
 10
36.71697964970576
 20
78.52915369667284
 30
0.0
 10
36.80658112106335
 20
78.48634276960442
 30
0.0
  0
SPLINE
  5
1A9
330
1F
100
AcDbEntity
  8
0
  6
Continuous
 62
     7
370
    15
100
AcDbSpline
210
0.0
220
0.0
230
1.0
 70
     8
 71
     3
 72
    11
 73
     7
 74
     0
 42
0.000000001
 43
0.00000001
 40
0.0
 40
0.0
 40
0.0
 40
0.0
 40
0.2582166630976556
 40
0.5584433922932789
 40
0.8981216358081852
 40
1.0
 40
1.0
 40
1.0
 40
1.0
 10
36.01761169434575
 20
81.04638614459009
 30
0.0
 10
36.08599715342367
 20
81.01614394984666
 30
0.0
 10
36.23389391303972
 20
80.9507393643319
 30
0.0
 10
36.47081895977739
 20
80.84393589921433
 30
0.0
 10
36.66664702376463
 20
80.754880424243
 30
0.0
 10
36.78034751876564
 20
80.70038614319894
 30
0.0
 10
36.80658112106335
 20
80.6878129235626
 30
0.0
  0
SPLINE
  5
1AA
330
1F
100
AcDbEntity
  8
0
  6
Continuous
 62
     7
370
    15
100
AcDbSpline
210
0.0
220
0.0
230
1.0
 70
     8
 71
     3
 72
     9
 73
     5
 74
     0
 42
0.000000001
 43
0.00000001
 40
0.0
 40
0.0
 40
0.0
 40
0.0
 40
0.7180941194712999
 40
1.0
 40
1.0
 40
1.0
 40
1.0
 10
36.01832371989557
 20
83.24579184056581
 30
0.0
 10
36.20917683236797
 20
83.16154493637974
 30
0.0
 10
36.47495412715062
 20
83.04422479421217
 30
0.0
 10
36.73365252221216
 20
82.92089195078754
 30
0.0
 10
36.80658112106335
 20
82.8861236969638
 30
0.0
  0
LINE
  5
1AB
330
1F
100
AcDbEntity
  8
0
  6
Continuous
 62
     7
370
    15
100
AcDbLine
 10
39.769229952
 20
84.6018791942
 30
0.0
 11
39.5706952597
 21
84.6912522454
 31
0.0
  0
SPLINE
  5
1AC
330
1F
100
AcDbEntity
  8
0
  6
Continuous
 62
     7
370
    15
100
AcDbSpline
210
0.0
220
0.0
230
1.0
 70
     8
 71
     3
 72
     9
 73
     5
 74
     0
 42
0.000000001
 43
0.00000001
 40
0.0
 40
0.0
 40
0.0
 40
0.0
 40
0.7159128331685194
 40
1.0
 40
1.0
 40
1.0
 40
1.0
 10
40.28902613887816
 20
82.39615995652787
 30
0.0
 10
40.10004749700141
 20
82.47981803426264
 30
0.0
 10
39.83607871040994
 20
82.59667315105739
 30
0.0
 10
39.57947807000355
 20
82.71888172070369
 30
0.0
 10
39.50658112106335
 20
82.75359960701704
 30
0.0
  0
SPLINE
  5
1AD
330
1F
100
AcDbEntity
  8
0
  6
Continuous
 62
     7
370
    15
100
AcDbSpline
210
0.0
220
0.0
230
1.0
 70
     8
 71
     3
 72
     9
 73
     5
 74
     0
 42
0.000000001
 43
0.00000001
 40
0.0
 40
0.0
 40
0.0
 40
0.0
 40
0.7206489950190382
 40
1.0
 40
1.0
 40
1.0
 40
1.0
 10
40.2959922422071
 20
80.19184471827909
 30
0.0
 10
40.10430184331654
 20
80.27646774043338
 30
0.0
 10
39.83830494300102
 20
80.3938938698517
 30
0.0
 10
39.57901423963177
 20
80.5177302430791
 30
0.0
 10
39.50658112106335
 20
80.55232405839335
 30
0.0
  0
SPLINE
  5
1AE
330
1F
100
AcDbEntity
  8
0
  6
Continuous
 62
     7
370
    15
100
AcDbSpline
210
0.0
220
0.0
230
1.0
 70
     8
 71
     3
 72
     9
 73
     5
 74
     0
 42
0.000000001
 43
0.00000001
 40
0.0
 40
0.0
 40
0.0
 40
0.0
 40
0.6477310430134763
 40
1.0
 40
1.0
 40
1.0
 40
1.0
 10
40.2896336192616
 20
77.9955119847145
 30
0.0
 10
40.11805720041347
 20
78.07146829997127
 30
0.0
 10
39.85316883247314
 20
78.18873350761581
 30
0.0
 10
39.59686796154126
 20
78.31085461493151
 30
0.0
 10
39.50658112106335
 20
78.35387409003167
 30
0.0
  0
SPLINE
  5
1AF
330
1F
100
AcDbEntity
  8
0
  6
Continuous
 62
     7
370
    15
100
AcDbSpline
210
0.0
220
0.0
230
1.0
 70
     8
 71
     3
 72
    11
 73
     7
 74
     0
 42
0.000000001
 43
0.00000001
 40
0.0
 40
0.0
 40
0.0
 40
0.0
 40
0.259812420903354
 40
0.5613478436071435
 40
0.9019533381953769
 40
0.9999999999999999
 40
0.9999999999999999
 40
0.9999999999999999
 40
0.9999999999999999
 10
40.29517468248012
 20
75.79254957121331
 30
0.0
 10
40.2264295622403
 20
75.82297131527712
 30
0.0
 10
40.07789961563127
 20
75.88870019909879
 30
0.0
 10
39.84010925182536
 20
75.9960302842827
 30
0.0
 10
39.64473202563602
 20
76.08500328509191
 30
0.0
 10
39.53181917741706
 20
76.13924541334153
 30
0.0
 10
39.50658112106335
 20
76.15136950649037
 30
0.0
  0
SPLINE
  5
1B0
330
1F
100
AcDbEntity
  8
0
  6
Continuous
 62
     7
370
    15
100
AcDbSpline
210
0.0
220
0.0
230
1.0
 70
     8
 71
     3
 72
     9
 73
     5
 74
     0
 42
0.000000001
 43
0.00000001
 40
0.0
 40
0.0
 40
0.0
 40
0.0
 40
0.7052305770480753
 40
1.0
 40
1.0
 40
1.0
 40
1.0
 10
40.28703580973193
 20
73.59625979688587
 30
0.0
 10
40.10140243040402
 20
73.67855142267734
 30
0.0
 10
39.83817876233091
 20
73.79523896923257
 30
0.0
 10
39.58207320763565
 20
73.91749172171014
 30
0.0
 10
39.50658112106335
 20
73.95352809501225
 30
0.0
  0
SPLINE
  5
1B1
330
1F
100
AcDbEntity
  8
0
  6
Continuous
 62
     7
370
    15
100
AcDbSpline
210
0.0
220
0.0
230
1.0
 70
     8
 71
     3
 72
     9
 73
     5
 74
     0
 42
0.000000001
 43
0.00000001
 40
0.0
 40
0.0
 40
0.0
 40
0.0
 40
0.4924486468213279
 40
1.0
 40
1.0
 40
1.0
 40
1.0
 10
37.01916361407135
 20
75.15373733432419
 30
0.0
 10
36.85654534624479
 20
75.07618642923806
 30
0.0
 10
36.52632153737408
 20
74.91870624204148
 30
0.0
 10
36.18615658138275
 20
74.76820390507835
 30
0.0
 10
36.01350539766538
 20
74.69181624029616
 30
0.0
  0
SPLINE
  5
1B2
330
1F
100
AcDbEntity
  8
0
  6
Continuous
 62
     7
370
    15
100
AcDbSpline
210
0.0
220
0.0
230
1.0
 70
     8
 71
     3
 72
     9
 73
     5
 74
     0
 42
0.000000001
 43
0.00000001
 40
0.0
 40
0.0
 40
0.0
 40
0.0
 40
0.4401220180155662
 40
1.0
 40
1.0
 40
1.0
 40
1.0
 10
37.02409007447684
 20
77.35600995751183
 30
0.0
 10
36.87917542463264
 20
77.28641198995342
 30
0.0
 10
36.54991525606033
 20
77.12827864349595
 30
0.0
 10
36.21298810388847
 20
76.97845884280585
 30
0.0
 10
36.02435000985472
 20
76.89457803513417
 30
0.0
  0
SPLINE
  5
1B3
330
1F
100
AcDbEntity
  8
0
  6
Continuous
 62
     7
370
    15
100
AcDbSpline
210
0.0
220
0.0
230
1.0
 70
     8
 71
     3
 72
     9
 73
     5
 74
     0
 42
0.000000001
 43
0.00000001
 40
0.0
 40
0.0
 40
0.0
 40
0.0
 40
0.5087256559954901
 40
1.0
 40
1.0
 40
1.0
 40
1.0
 10
37.01861769763611
 20
79.55325312485658
 30
0.0
 10
36.85113344565917
 20
79.4734713862531
 30
0.0
 10
36.52191031723406
 20
79.31664473978215
 30
0.0
 10
36.18458708929278
 20
79.16738215318075
 30
0.0
 10
36.01886884176844
 20
79.09405327386374
 30
0.0
  0
SPLINE
  5
1B4
330
1F
100
AcDbEntity
  8
0
  6
Continuous
 62
     7
370
    15
100
AcDbSpline
210
0.0
220
0.0
230
1.0
 70
     8
 71
     3
 72
     9
 73
     5
 74
     0
 42
0.000000001
 43
0.00000001
 40
0.0
 40
0.0
 40
0.0
 40
0.0
 40
0.492165280635231
 40
1.0
 40
1.0
 40
1.0
 40
1.0
 10
37.02468308996703
 20
81.7565490390186
 30
0.0
 10
36.86228496878252
 20
81.6786702670134
 30
0.0
 10
36.53231833445408
 20
81.52043323756536
 30
0.0
 10
36.1925862103948
 20
81.36946471658152
 30
0.0
 10
36.02005844251396
 20
81.29279766009478
 30
0.0
  0
SPLINE
  5
1B5
330
1F
100
AcDbEntity
  8
0
  6
Continuous
 62
     7
370
    15
100
AcDbSpline
210
0.0
220
0.0
230
1.0
 70
     8
 71
     3
 72
     9
 73
     5
 74
     0
 42
0.000000001
 43
0.00000001
 40
0.0
 40
0.0
 40
0.0
 40
0.0
 40
0.4463284499409371
 40
1.0
 40
1.0
 40
1.0
 40
1.0
 10
36.95777479369517
 20
83.89241035877745
 30
0.0
 10
36.82078051957338
 20
83.82917175872737
 30
0.0
 10
36.51384450834684
 20
83.68748551833993
 30
0.0
 10
36.19908148846436
 20
83.55117894650682
 30
0.0
 10
36.02480615934475
 20
83.47570987559678
 30
0.0
  0
SPLINE
  5
1B6
330
1F
100
AcDbEntity
  8
0
  6
Continuous
 62
     7
370
    15
100
AcDbSpline
210
0.0
220
0.0
230
1.0
 70
     8
 71
     3
 72
    11
 73
     7
 74
     0
 42
0.000000001
 43
0.00000001
 40
0.0
 40
0.0
 40
0.0
 40
0.0
 40
0.294132760357547
 40
0.5600626980455099
 40
0.7959786730051311
 40
1.0
 40
1.0
 40
1.0
 40
1.0
 10
39.27421332582284
 20
66.27631192207033
 30
0.0
 10
39.37157060082936
 20
66.32355720302941
 30
0.0
 10
39.55695008065415
 20
66.41351766677269
 30
0.0
 10
39.82752298376381
 20
66.53821931602157
 30
0.0
 10
40.06837825110944
 20
66.64717218330249
 30
0.0
 10
40.21884475061177
 20
66.71402162310879
 30
0.0
 10
40.28862372766227
 20
66.74502311208815
 30
0.0
  0
SPLINE
  5
1B7
330
1F
100
AcDbEntity
  8
0
  6
Continuous
 62
     7
370
    15
100
AcDbSpline
210
0.0
220
0.0
230
1.0
 70
     8
 71
     3
 72
     9
 73
     5
 74
     0
 42
0.000000001
 43
0.00000001
 40
0.0
 40
0.0
 40
0.0
 40
0.0
 40
0.4394832747595117
 40
1.0
 40
1.0
 40
1.0
 40
1.0
 10
39.01337656794663
 20
64.05658460848956
 30
0.0
 10
39.16300317105166
 20
64.13056188903373
 30
0.0
 10
39.50346346089297
 20
64.29888975221498
 30
0.0
 10
39.85695532655996
 20
64.45579162007095
 30
0.0
 10
40.05509342950277
 20
64.54373774122571
 30
0.0
  0
SPLINE
  5
1B8
330
1F
100
AcDbEntity
  8
0
  6
Continuous
 62
     7
370
    15
100
AcDbSpline
210
0.0
220
0.0
230
1.0
 70
     8
 71
     3
 72
    11
 73
     7
 74
     0
 42
0.000000001
 43
0.00000001
 40
0.0
 40
0.0
 40
0.0
 40
0.0
 40
0.204659073009756
 40
0.4391563909489505
 40
0.7042230188910317
 40
0.9999999999999999
 40
0.9999999999999999
 40
0.9999999999999999
 40
0.9999999999999999
 10
38.42884294886297
 20
61.73041247841874
 30
0.0
 10
38.49123274047847
 20
61.77417200826368
 30
0.0
 10
38.62510843587267
 20
61.86807098334314
 30
0.0
 10
38.87382718875703
 20
62.0064672224154
 30
0.0
 10
39.16773997952601
 20
62.15585581516378
 30
0.0
 10
39.38069556683536
 20
62.25541484722735
 30
0.0
 10
39.4930038105385
 20
62.30792016149085
 30
0.0
  0
SPLINE
  5
1B9
330
1F
100
AcDbEntity
  8
0
  6
Continuous
 62
     7
370
    15
100
AcDbSpline
210
0.0
220
0.0
230
1.0
 70
     8
 71
     3
 72
    13
 73
     9
 74
     0
 42
0.000000001
 43
0.00000001
 40
0.0
 40
0.0
 40
0.0
 40
0.0
 40
0.2639313600292786
 40
0.4918893427709582
 40
0.6857015393700763
 40
0.8465032769423122
 40
0.9776748248794468
 40
1.0
 40
1.0
 40
1.0
 40
1.0
 10
37.15768331825902
 20
61.16969440994483
 30
0.0
 10
37.23023937669177
 20
61.1334234659345
 30
0.0
 10
37.36546223119674
 20
61.06582524339304
 30
0.0
 10
37.5472714586972
 20
60.96752444167486
 30
0.0
 10
37.69500797522482
 20
60.88138325561668
 30
0.0
 10
37.80942856608534
 20
60.80629977110554
 30
0.0
 10
37.88159342099522
 20
60.75586517035845
 30
0.0
 10
37.91224336046442
 20
60.72973142508636
 30
0.0
 10
37.91670120980774
 20
60.72593042902512
 30
0.0
  0
SPLINE
  5
1BA
330
1F
100
AcDbEntity
  8
0
  6
Continuous
 62
     7
370
    15
100
AcDbSpline
210
0.0
220
0.0
230
1.0
 70
     8
 71
     3
 72
     9
 73
     5
 74
     0
 42
0.000000001
 43
0.00000001
 40
0.0
 40
0.0
 40
0.0
 40
0.0
 40
0.7043118293369978
 40
1.0
 40
1.0
 40
1.0
 40
1.0
 10
36.50029380296802
 20
63.43356392743136
 30
0.0
 10
36.70303224438034
 20
63.34310480409516
 30
0.0
 10
36.99088548348208
 20
63.21466862062034
 30
0.0
 10
37.26219193026726
 20
63.07158006463227
 30
0.0
 10
37.34241403720625
 20
63.02927047126936
 30
0.0
  0
SPLINE
  5
1BB
330
1F
100
AcDbEntity
  8
0
  6
Continuous
 62
     7
370
    15
100
AcDbSpline
210
0.0
220
0.0
230
1.0
 70
     8
 71
     3
 72
    12
 73
     8
 74
     0
 42
0.000000001
 43
0.00000001
 40
0.0
 40
0.0
 40
0.0
 40
0.0
 40
0.3057961137356875
 40
0.5223349972656961
 40
0.6550859168442258
 40
0.806750005880776
 40
1.0
 40
1.0
 40
1.0
 40
1.0
 10
36.0224835500803
 20
65.65419667921579
 30
0.0
 10
36.10289036159672
 20
65.61887718121758
 30
0.0
 10
36.24023446044907
 20
65.55854740898816
 30
0.0
 10
36.41214858555445
 20
65.48186547625238
 30
0.0
 10
36.54172777095539
 20
65.42350410704776
 30
0.0
 10
36.66659080692535
 20
65.36682515830715
 30
0.0
 10
36.75631182861837
 20
65.32524639406932
 30
0.0
 10
36.80658112106335
 20
65.30195045940953
 30
0.0
  0
SPLINE
  5
1BC
330
1F
100
AcDbEntity
  8
0
  6
Continuous
 62
     7
370
    15
100
AcDbSpline
210
0.0
220
0.0
230
1.0
 70
     8
 71
     3
 72
     9
 73
     5
 74
     0
 42
0.000000001
 43
0.00000001
 40
0.0
 40
0.0
 40
0.0
 40
0.0
 40
0.7300130991420901
 40
1.0
 40
1.0
 40
1.0
 40
1.0
 10
36.0140145350018
 20
67.8490526286871
 30
0.0
 10
36.20896230716586
 20
67.76307621309486
 30
0.0
 10
36.47600925795778
 20
67.64530241466126
 30
0.0
 10
36.73630474831462
 20
67.52087781533265
 30
0.0
 10
36.80658112106335
 20
67.48728480336943
 30
0.0
  0
SPLINE
  5
1BD
330
1F
100
AcDbEntity
  8
0
  6
Continuous
 62
     7
370
    15
100
AcDbSpline
210
0.0
220
0.0
230
1.0
 70
     8
 71
     3
 72
     9
 73
     5
 74
     0
 42
0.000000001
 43
0.00000001
 40
0.0
 40
0.0
 40
0.0
 40
0.0
 40
0.7200707528283634
 40
1.0
 40
1.0
 40
1.0
 40
1.0
 10
40.3034853177701
 20
66.9895932550785
 30
0.0
 10
40.11020972171067
 20
67.07478231923764
 30
0.0
 10
39.84179777010694
 20
67.19308883817976
 30
0.0
 10
39.57989528621234
 20
67.31786021582059
 30
0.0
 10
39.50658112106335
 20
67.35278737363215
 30
0.0
  0
SPLINE
  5
1BE
330
1F
100
AcDbEntity
  8
0
  6
Continuous
 62
     7
370
    15
100
AcDbSpline
210
0.0
220
0.0
230
1.0
 70
     8
 71
     3
 72
    10
 73
     6
 74
     0
 42
0.000000001
 43
0.00000001
 40
0.0
 40
0.0
 40
0.0
 40
0.0
 40
0.510838753855845
 40
0.9704125466418149
 40
1.0
 40
1.0
 40
1.0
 40
1.0
 10
40.05803912346855
 20
64.81656015781017
 30
0.0
 10
39.95995233484427
 20
64.86143892333858
 30
0.0
 10
39.7736222069471
 20
64.94669266890473
 30
0.0
 10
39.57987436446593
 20
65.03706430718823
 30
0.0
 10
39.48874144112663
 20
65.0820012789102
 30
0.0
 10
39.48322916651381
 20
65.08471934082816
 30
0.0
  0
SPLINE
  5
1BF
330
1F
100
AcDbEntity
  8
0
  6
Continuous
 62
     7
370
    15
100
AcDbSpline
210
0.0
220
0.0
230
1.0
 70
     8
 71
     3
 72
    10
 73
     6
 74
     0
 42
0.000000001
 43
0.00000001
 40
0.0
 40
0.0
 40
0.0
 40
0.0
 40
0.3636488329323908
 40
0.7842207255651665
 40
1.0
 40
1.0
 40
1.0
 40
1.0
 10
39.51143783664242
 20
62.66039093069661
 30
0.0
 10
39.44208021731352
 20
62.69444377130651
 30
0.0
 10
39.29250821919934
 20
62.76787984741132
 30
0.0
 10
39.10293289928719
 20
62.86420247147166
 30
0.0
 10
38.98946154296141
 20
62.92827667346332
 30
0.0
 10
38.95098472669353
 20
62.95000348961652
 30
0.0
  0
SPLINE
  5
1C0
330
1F
100
AcDbEntity
  8
0
  6
Continuous
 62
     7
370
    15
100
AcDbSpline
210
0.0
220
0.0
230
1.0
 70
     8
 71
     3
 72
     9
 73
     5
 74
     0
 42
0.000000001
 43
0.00000001
 40
0.0
 40
0.0
 40
0.0
 40
0.0
 40
0.5842864047916364
 40
1.0
 40
1.0
 40
1.0
 40
1.0
 10
38.90430604107647
 20
60.52952406032789
 30
0.0
 10
38.80139612271461
 20
60.58907025120948
 30
0.0
 10
38.62526688623417
 20
60.69098292689944
 30
0.0
 10
38.48517001678063
 20
60.80198788554411
 30
0.0
 10
38.42692984350266
 20
60.84813415598823
 30
0.0
  0
SPLINE
  5
1C1
330
1F
100
AcDbEntity
  8
0
  6
Continuous
 62
     7
370
    15
100
AcDbSpline
210
0.0
220
0.0
230
1.0
 70
     8
 71
     3
 72
    12
 73
     8
 74
     0
 42
0.000000001
 43
0.00000001
 40
0.0
 40
0.0
 40
0.0
 40
0.0
 40
0.2361485977934511
 40
0.3945533620231711
 40
0.5737087036716244
 40
0.7750054640096908
 40
0.9999999999999999
 40
0.9999999999999999
 40
0.9999999999999999
 40
0.9999999999999999
 10
37.87240961147037
 20
62.05542040016874
 30
0.0
 10
37.82107343339381
 20
62.0155736787004
 30
0.0
 10
37.73530175470172
 20
61.94899840335329
 30
0.0
 10
37.59159501784974
 20
61.85735221386601
 30
0.0
 10
37.45011328586934
 20
61.77334041880419
 30
0.0
 10
37.28381341175803
 20
61.6816604590079
 30
0.0
 10
37.1631561776781
 20
61.61960997882554
 30
0.0
 10
37.09947385849987
 20
61.58686002798946
 30
0.0
  0
SPLINE
  5
1C2
330
1F
100
AcDbEntity
  8
0
  6
Continuous
 62
     7
370
    15
100
AcDbSpline
210
0.0
220
0.0
230
1.0
 70
     8
 71
     3
 72
    11
 73
     7
 74
     0
 42
0.000000001
 43
0.00000001
 40
0.0
 40
0.0
 40
0.0
 40
0.0
 40
0.1916667659822598
 40
0.4116675853065832
 40
0.6802554814971052
 40
1.0
 40
1.0
 40
1.0
 40
1.0
 10
37.32427496965676
 20
64.14305461916602
 30
0.0
 10
37.27281996317382
 20
64.1153107380075
 30
0.0
 10
37.16230336859253
 20
64.05572160420523
 30
0.0
 10
36.97364506906479
 20
63.96090194341775
 30
0.0
 10
36.74561952557423
 20
63.84994891053842
 30
0.0
 10
36.57731595124263
 20
63.7716477172311
 30
0.0
 10
36.48584700614803
 20
63.7290929017442
 30
0.0
  0
SPLINE
  5
1C3
330
1F
100
AcDbEntity
  8
0
  6
Continuous
 62
     7
370
    15
100
AcDbSpline
210
0.0
220
0.0
230
1.0
 70
     8
 71
     3
 72
     9
 73
     5
 74
     0
 42
0.000000001
 43
0.00000001
 40
0.0
 40
0.0
 40
0.0
 40
0.0
 40
0.4384298105093888
 40
1.0
 40
1.0
 40
1.0
 40
1.0
 10
37.02187163273097
 20
66.35544790612302
 30
0.0
 10
36.87665266102796
 20
66.2860136699556
 30
0.0
 10
36.5454275293831
 20
66.12764342572709
 30
0.0
 10
36.20591241619613
 20
65.97736068134745
 30
0.0
 10
36.01525084974879
 20
65.892966372109
 30
0.0
  0
SPLINE
  5
1C4
330
1F
100
AcDbEntity
  8
0
  6
Continuous
 62
     7
370
    15
100
AcDbSpline
210
0.0
220
0.0
230
1.0
 70
     8
 71
     3
 72
    11
 73
     7
 74
     0
 42
0.000000001
 43
0.00000001
 40
0.0
 40
0.0
 40
0.0
 40
0.0
 40
0.2888228547107815
 40
0.5520719262493196
 40
0.7893366674297706
 40
1.0
 40
1.0
 40
1.0
 40
1.0
 10
37.02843683169552
 20
68.55773885006519
 30
0.0
 10
36.93402458383633
 20
68.51197453377439
 30
0.0
 10
36.75355980867393
 20
68.42449809679559
 30
0.0
 10
36.48702244651358
 20
68.30166505340864
 30
0.0
 10
36.24512012073565
 20
68.19251080684076
 30
0.0
 10
36.09348577156374
 20
68.12532110566244
 30
0.0
 10
36.02217120299654
 20
68.09372137527248
 30
0.0
  0
SPLINE
  5
1C5
330
1F
100
AcDbEntity
  8
0
  6
Continuous
 62
     7
370
    15
100
AcDbSpline
210
0.0
220
0.0
230
1.0
 70
     8
 71
     3
 72
    11
 73
     7
 74
     0
 42
0.000000001
 43
0.00000001
 40
0.0
 40
0.0
 40
0.0
 40
0.0
 40
0.2046501250578941
 40
0.4369433108603548
 40
0.7005165051234152
 40
1.0
 40
1.0
 40
1.0
 40
1.0
 10
39.29666882560889
 20
68.48735798150273
 30
0.0
 10
39.36179630719521
 20
68.51891995891783
 30
0.0
 10
39.50084834747258
 20
68.58630713938082
 30
0.0
 10
39.73465915287342
 20
68.69529146233283
 30
0.0
 10
40.00509709196859
 20
68.8177251190551
 30
0.0
 10
40.1947923253686
 20
68.90156875479633
 30
0.0
 10
40.29568907796179
 20
68.9461642378787
 30
0.0
  0
SPLINE
  5
1C6
330
1F
100
AcDbEntity
  8
0
  6
Continuous
 62
     7
370
    15
100
AcDbSpline
210
0.0
220
0.0
230
1.0
 70
     8
 71
     3
 72
     9
 73
     5
 74
     0
 42
0.000000001
 43
0.00000001
 40
0.0
 40
0.0
 40
0.0
 40
0.0
 40
0.7134813274198408
 40
1.0
 40
1.0
 40
1.0
 40
1.0
 10
36.02600324487994
 20
70.04337828974778
 30
0.0
 10
36.21385875964529
 20
69.96011067839908
 30
0.0
 10
36.47715298690235
 20
69.8434045949339
 30
0.0
 10
36.73321466807509
 20
69.72120119526286
 30
0.0
 10
36.80658112106335
 20
69.68618763940434
 30
0.0
  0
SPLINE
  5
1C7
330
1F
100
AcDbEntity
  8
0
  6
Continuous
 62
     7
370
    15
100
AcDbSpline
210
0.0
220
0.0
230
1.0
 70
     8
 71
     3
 72
    12
 73
     8
 74
     0
 42
0.000000001
 43
0.00000001
 40
0.0
 40
0.0
 40
0.0
 40
0.0
 40
0.2993486234543412
 40
0.5122490443215306
 40
0.6438407493014483
 40
0.7929049664624035
 40
1.0
 40
1.0
 40
1.0
 40
1.0
 10
40.2868847137469
 20
69.19595063710119
 30
0.0
 10
40.20846571520052
 20
69.23083113568309
 30
0.0
 10
40.07427416089006
 20
69.29051907363936
 30
0.0
 10
39.90636287971702
 20
69.36646327851525
 30
0.0
 10
39.77875311509271
 20
69.42479534860767
 30
0.0
 10
39.6520207565333
 20
69.48324339768851
 30
0.0
 10
39.56005577190633
 20
69.52656853588908
 30
0.0
 10
39.50658112106335
 20
69.55176069622486
 30
0.0
  0
SPLINE
  5
1C8
330
1F
100
AcDbEntity
  8
0
  6
Continuous
 62
     7
370
    15
100
AcDbSpline
210
0.0
220
0.0
230
1.0
 70
     8
 71
     3
 72
     9
 73
     5
 74
     0
 42
0.000000001
 43
0.00000001
 40
0.0
 40
0.0
 40
0.0
 40
0.0
 40
0.4408415354733135
 40
1.0
 40
1.0
 40
1.0
 40
1.0
 10
37.02062672430083
 20
70.75465376770082
 30
0.0
 10
36.87665058789166
 20
70.68585013973964
 30
0.0
 10
36.55005673313024
 20
70.52977676092948
 30
0.0
 10
36.21552607247988
 20
70.38135466177768
 30
0.0
 10
36.02847042193352
 20
70.29836318871413
 30
0.0
  0
SPLINE
  5
1C9
330
1F
100
AcDbEntity
  8
0
  6
Continuous
 62
     7
370
    15
100
AcDbSpline
210
0.0
220
0.0
230
1.0
 70
     8
 71
     3
 72
    13
 73
     9
 74
     0
 42
0.000000001
 43
0.00000001
 40
0.0
 40
0.0
 40
0.0
 40
0.0
 40
0.295517524728474
 40
0.5058421805290398
 40
0.6359160639211259
 40
0.784470063371029
 40
0.99781932781304
 40
1.0
 40
1.0
 40
1.0
 40
1.0
 10
40.29672644129928
 20
71.3922411526041
 30
0.0
 10
40.21839392556664
 20
71.42691400159897
 30
0.0
 10
40.08431087718927
 20
71.4862640843287
 30
0.0
 10
39.91645598640074
 20
71.56183753248456
 30
0.0
 10
39.78860237328201
 20
71.61992761062707
 30
0.0
 10
39.65913778399963
 20
71.67958524014034
 30
0.0
 10
39.5631771419563
 20
71.72379753057209
 30
0.0
 10
39.50714800831485
 20
71.75071957970472
 30
0.0
 10
39.50658112106335
 20
71.75099196953919
 30
0.0
  0
SPLINE
  5
1CA
330
1F
100
AcDbEntity
  8
0
  6
Continuous
 62
     7
370
    15
100
AcDbSpline
210
0.0
220
0.0
230
1.0
 70
     8
 71
     3
 72
    11
 73
     7
 74
     0
 42
0.000000001
 43
0.00000001
 40
0.0
 40
0.0
 40
0.0
 40
0.0
 40
0.2836180231011554
 40
0.5461410490126748
 40
0.7855767809862987
 40
1.0
 40
1.0
 40
1.0
 40
1.0
 10
37.02933336961073
 20
72.95834317614664
 30
0.0
 10
36.93596714717368
 20
72.9130863673968
 30
0.0
 10
36.75617911358339
 20
72.82593886973304
 30
0.0
 10
36.49173176779482
 20
72.70408998711962
 30
0.0
 10
36.24986366103281
 20
72.59468275535757
 30
0.0
 10
36.09615964604785
 20
72.52644676916233
 30
0.0
 10
36.02354301130547
 20
72.49420904468708
 30
0.0
  0
SPLINE
  5
1CB
330
1F
100
AcDbEntity
  8
0
  6
Continuous
 62
     7
370
    15
100
AcDbSpline
210
0.0
220
0.0
230
1.0
 70
     8
 71
     3
 72
     9
 73
     5
 74
     0
 42
0.000000001
 43
0.00000001
 40
0.0
 40
0.0
 40
0.0
 40
0.0
 40
0.4421841541528742
 40
1.0
 40
1.0
 40
1.0
 40
1.0
 10
39.28666190310501
 20
70.68268274309035
 30
0.0
 10
39.43295858555136
 20
70.75294442072183
 30
0.0
 10
39.76380871003541
 20
70.91184128975617
 30
0.0
 10
40.10147599001795
 20
71.0619058548738
 30
0.0
 10
40.28983214941631
 20
71.14561424719658
 30
0.0
  0
SPLINE
  5
1CC
330
1F
100
AcDbEntity
  8
0
  6
Continuous
 62
     7
370
    15
100
AcDbSpline
210
0.0
220
0.0
230
1.0
 70
     8
 71
     3
 72
     9
 73
     5
 74
     0
 42
0.000000001
 43
0.00000001
 40
0.0
 40
0.0
 40
0.0
 40
0.0
 40
0.647333885621723
 40
1.0
 40
1.0
 40
1.0
 40
1.0
 10
36.01816971531515
 20
72.24684025165872
 30
0.0
 10
36.19065729675212
 20
72.17083969529502
 30
0.0
 10
36.45711574310909
 20
72.05343419860806
 30
0.0
 10
36.71546876477466
 20
71.93036207282137
 30
0.0
 10
36.80658112106335
 20
71.8869587044319
 30
0.0
  0
LINE
  5
1CD
330
1F
100
AcDbEntity
  8
0
  6
Continuous
 62
     7
370
    15
100
AcDbLine
 10
36.0772349144
 20
95.5280697097
 30
0.0
 11
36.6565811211
 21
94.2880697097
 31
0.0
  0
LINE
  5
1CE
330
1F
100
AcDbEntity
  8
0
  6
Continuous
 62
     7
370
    15
100
AcDbLine
 10
39.6565811211
 20
94.2880697097
 30
0.0
 11
40.2359273277
 21
95.5280697097
 31
0.0
  0
LINE
  5
1CF
330
1F
100
AcDbEntity
  8
0
  6
Continuous
 62
     7
370
    15
100
AcDbLine
 10
39.6565811211
 20
85.2638246546
 30
0.0
 11
39.6565811211
 21
94.2880697097
 31
0.0
  0
LINE
  5
1D0
330
1F
100
AcDbEntity
  8
0
  6
Continuous
 62
     7
370
    15
100
AcDbLine
 10
36.6565811211
 20
94.2880697097
 30
0.0
 11
36.6565811211
 21
85.2638246546
 31
0.0
  0
LINE
  5
1D1
330
1F
100
AcDbEntity
  8
0
  6
Continuous
 62
     7
370
    15
100
AcDbLine
 10
36.6565811211
 20
85.2638246546
 30
0.0
 11
36.8065811211
 21
84.2638246546
 31
0.0
  0
LINE
  5
1D2
330
1F
100
AcDbEntity
  8
0
  6
Continuous
 62
     7
370
    15
100
AcDbLine
 10
39.5617357003
 20
84.6315218494
 30
0.0
 11
39.6565811211
 21
85.2638246546
 31
0.0
  0
LINE
  5
1D3
330
1F
100
AcDbEntity
  8
0
  6
Continuous
 62
     7
370
    15
100
AcDbLine
 10
39.5065811211
 20
67.2545254419
 30
0.0
 11
39.5065811211
 21
68.588265413
 31
0.0
  0
LINE
  5
1D4
330
1F
100
AcDbEntity
  8
0
  6
Continuous
 62
     7
370
    15
100
AcDbLine
 10
39.5065811211
 20
65.1783789149
 30
0.0
 11
39.5065811211
 21
66.388060336
 31
0.0
  0
LINE
  5
1D5
330
1F
100
AcDbEntity
  8
0
  6
Continuous
 62
     7
370
    15
100
AcDbLine
 10
36.8065811211
 20
65.3850764129
 30
0.0
 11
36.8065811211
 21
65.1783789149
 31
0.0
  0
LINE
  5
1D6
330
1F
100
AcDbEntity
  8
0
  6
Continuous
 62
     7
370
    15
100
AcDbLine
 10
36.8065811211
 20
67.5847480666
 30
0.0
 11
36.8065811211
 21
66.2536506129
 31
0.0
  0
LINE
  5
1D7
330
1F
100
AcDbEntity
  8
0
  6
Continuous
 62
     7
370
    15
100
AcDbLine
 10
36.8065811211
 20
69.785683203
 30
0.0
 11
36.8065811211
 21
68.4511480054
 31
0.0
  0
LINE
  5
1D8
330
1F
100
AcDbEntity
  8
0
  6
Continuous
 62
     7
370
    15
100
AcDbLine
 10
39.5065811211
 20
82.653848166
 30
0.0
 11
39.5065811211
 21
84.1560649906
 31
0.0
  0
LINE
  5
1D9
330
1F
100
AcDbEntity
  8
0
  6
Continuous
 62
     7
370
    15
100
AcDbLine
 10
39.5065811211
 20
80.4550657356
 30
0.0
 11
39.5065811211
 21
81.7857837494
 31
0.0
  0
LINE
  5
1DA
330
1F
100
AcDbEntity
  8
0
  6
Continuous
 62
     7
370
    15
100
AcDbLine
 10
39.5065811211
 20
78.2539240607
 30
0.0
 11
39.5065811211
 21
79.5874099282
 31
0.0
  0
LINE
  5
1DB
330
1F
100
AcDbEntity
  8
0
  6
Continuous
 62
     7
370
    15
100
AcDbLine
 10
39.5065811211
 20
76.0549409154
 30
0.0
 11
39.5065811211
 21
77.3871264577
 31
0.0
  0
LINE
  5
1DC
330
1F
100
AcDbEntity
  8
0
  6
Continuous
 62
     7
370
    15
100
AcDbLine
 10
39.5065811211
 20
73.8540677078
 30
0.0
 11
39.5065811211
 21
75.1870352827
 31
0.0
  0
LINE
  5
1DD
330
1F
100
AcDbEntity
  8
0
  6
Continuous
 62
     7
370
    15
100
AcDbLine
 10
39.5065811211
 20
71.6547479551
 30
0.0
 11
39.5065811211
 21
72.9862584722
 31
0.0
  0
LINE
  5
1DE
330
1F
100
AcDbEntity
  8
0
  6
Continuous
 62
     7
370
    15
100
AcDbLine
 10
36.8065811211
 20
74.1855278217
 30
0.0
 11
36.8065811211
 21
72.8513107961
 31
0.0
  0
LINE
  5
1DF
330
1F
100
AcDbEntity
  8
0
  6
Continuous
 62
     7
370
    15
100
AcDbLine
 10
36.8065811211
 20
76.3851265195
 30
0.0
 11
36.8065811211
 21
75.0535912705
 31
0.0
  0
LINE
  5
1E0
330
1F
100
AcDbEntity
  8
0
  6
Continuous
 62
     7
370
    15
100
AcDbLine
 10
36.8065811211
 20
78.5853474611
 30
0.0
 11
36.8065811211
 21
77.2527058273
 31
0.0
  0
LINE
  5
1E1
330
1F
100
AcDbEntity
  8
0
  6
Continuous
 62
     7
370
    15
100
AcDbLine
 10
36.8065811211
 20
80.785349121
 30
0.0
 11
36.8065811211
 21
79.4534910573
 31
0.0
  0
LINE
  5
1E2
330
1F
100
AcDbEntity
  8
0
  6
Continuous
 62
     7
370
    15
100
AcDbLine
 10
36.8065811211
 20
82.9890563966
 30
0.0
 11
36.8065811211
 21
81.6532469669
 31
0.0
  0
LINE
  5
1E3
330
1F
100
AcDbEntity
  8
0
  6
Continuous
 62
     7
370
    15
100
AcDbLine
 10
36.8065811211
 20
84.2638246546
 30
0.0
 11
36.8065811211
 21
83.8232736522
 31
0.0
  0
LINE
  5
1E4
330
1F
100
AcDbEntity
  8
0
  6
Continuous
 62
     7
370
    15
100
AcDbLine
 10
37.8552026342
 20
60.9725877434
 30
0.0
 11
38.1565811211
 21
59.7638246546
 31
0.0
  0
LINE
  5
1E5
330
1F
100
AcDbEntity
  8
0
  6
Continuous
 62
     7
370
    15
100
AcDbLine
 10
37.2895260327
 20
63.2413926712
 30
0.0
 11
37.6284580998
 21
61.8820103988
 31
0.0
  0
LINE
  5
1E6
330
1F
100
AcDbEntity
  8
0
  6
Continuous
 62
     7
370
    15
100
AcDbLine
 10
36.8065811211
 20
65.1783789149
 30
0.0
 11
37.0947413217
 21
64.0226314763
 31
0.0
  0
LINE
  5
1E7
330
1F
100
AcDbEntity
  8
0
  6
Continuous
 62
     7
370
    15
100
AcDbLine
 10
39.4571647805
 20
64.9801807986
 30
0.0
 11
39.5065811211
 21
65.1783789149
 31
0.0
  0
LINE
  5
1E8
330
1F
100
AcDbEntity
  8
0
  6
Continuous
 62
     7
370
    15
100
AcDbLine
 10
38.910633773
 20
62.7881646538
 30
0.0
 11
39.2563781767
 21
64.1748697162
 31
0.0
  0
LINE
  5
1E9
330
1F
100
AcDbEntity
  8
0
  6
Continuous
 62
     7
370
    15
100
AcDbLine
 10
38.363495479
 20
60.5937128163
 30
0.0
 11
38.6889564203
 21
61.8990653545
 31
0.0
  0
LINE
  5
1EA
330
1F
100
AcDbEntity
  8
0
  6
Continuous
 62
     7
370
    15
100
AcDbLine
 10
38.1565811211
 20
59.7638246546
 30
0.0
 11
38.184240899
 21
59.8747619644
 31
0.0
  0
LINE
  5
1EB
330
1F
100
AcDbEntity
  8
0
  6
Continuous
 62
     7
370
    15
100
AcDbLine
 10
39.5065811211
 20
69.4542429882
 30
0.0
 11
39.5065811211
 21
70.7871204741
 31
0.0
  0
LINE
  5
1EC
330
1F
100
AcDbEntity
  8
0
  6
Continuous
 62
     7
370
    15
100
AcDbLine
 10
36.8065811211
 20
71.9849143031
 30
0.0
 11
36.8065811211
 21
70.6534634241
 31
0.0
  0
LINE
  5
1ED
330
1F
100
AcDbEntity
  8
0
  6
Continuous
 62
     7
370
    15
100
AcDbLine
 10
34.4681557582
 20
96.8782474362
 30
0.0
 11
36.0772349144
 21
95.5280697097
 31
0.0
  0
LINE
  5
1EE
330
1F
100
AcDbEntity
  8
0
  6
Continuous
 62
     7
370
    15
100
AcDbLine
 10
39.5286946374
 20
96.867554061
 30
0.0
 11
38.1095665543
 21
95.8038992091
 31
0.0
  0
LINE
  5
1EF
330
1F
100
AcDbEntity
  8
0
  6
Continuous
 62
     7
370
    15
100
AcDbLine
 10
38.1095665543
 20
95.8038992091
 30
0.0
 11
37.3958061542
 21
96.8730083026
 31
0.0
  0
LINE
  5
1F0
330
1F
100
AcDbEntity
  8
0
  6
Continuous
 62
     7
370
    15
100
AcDbLine
 10
36.6562567469
 20
96.8782474362
 30
0.0
 11
36.066158316
 21
96.8782474362
 31
0.0
  0
LINE
  5
1F1
330
1F
100
AcDbEntity
  8
0
  6
Continuous
 62
     7
370
    15
100
AcDbLine
 10
36.066158316
 20
96.8782474362
 30
0.0
 11
34.6190631631
 21
96.8782474362
 31
0.0
  0
LINE
  5
1F2
330
1F
100
AcDbEntity
  8
0
  6
Continuous
 62
     7
370
    15
100
AcDbLine
 10
34.6190631631
 20
96.8782474362
 30
0.0
 11
34.5598685969
 21
96.8782474362
 31
0.0
  0
SPLINE
  5
1F3
330
1F
100
AcDbEntity
  8
0
  6
Continuous
 62
     7
370
    15
100
AcDbSpline
210
0.0
220
0.0
230
1.0
 70
     8
 71
     3
 72
     9
 73
     5
 74
     0
 42
0.000000001
 43
0.00000001
 40
0.0
 40
0.0
 40
0.0
 40
0.0
 40
0.5000000000000002
 40
1.0
 40
1.0
 40
1.0
 40
1.0
 10
34.55986859693559
 20
96.87824743617401
 30
0.0
 10
34.54538139957438
 20
96.8777029086584
 30
0.0
 10
34.51640700485198
 20
96.87661385362722
 30
0.0
 10
34.49770176166663
 20
96.8777029086584
 30
0.0
 10
34.48834914007396
 20
96.87824743617401
 30
0.0
  0
LINE
  5
1F4
330
1F
100
AcDbEntity
  8
0
  6
Continuous
 62
     7
370
    15
100
AcDbLine
 10
41.8335145102
 20
96.8782474362
 30
0.0
 11
40.8296831023
 21
96.8782474362
 31
0.0
  0
LINE
  5
1F5
330
1F
100
AcDbEntity
  8
0
  6
Continuous
 62
     7
370
    15
100
AcDbLine
 10
40.8296831023
 20
96.8782474362
 30
0.0
 11
40.6628254442
 21
96.8782474362
 31
0.0
  0
SPLINE
  5
1F6
330
1F
100
AcDbEntity
  8
0
  6
Continuous
 62
     7
370
    15
100
AcDbSpline
210
0.0
220
0.0
230
1.0
 70
     8
 71
     3
 72
     9
 73
     5
 74
     0
 42
0.000000001
 43
0.00000001
 40
0.0
 40
0.0
 40
0.0
 40
0.0
 40
0.5000000000000056
 40
1.0
 40
1.0
 40
1.0
 40
1.0
 10
40.66282544420461
 20
96.87824743617401
 30
0.0
 10
40.60808774445706
 20
96.8777029086584
 30
0.0
 10
40.49861234496196
 20
96.87661385362722
 30
0.0
 10
40.38252993361112
 20
96.87770290865842
 30
0.0
 10
40.32448872793571
 20
96.87824743617401
 30
0.0
  0
LINE
  5
1F7
330
1F
100
AcDbEntity
  8
0
  6
Continuous
 62
     7
370
    15
100
AcDbLine
 10
40.3244887279
 20
96.8782474362
 30
0.0
 11
39.7430917052
 21
96.8782474362
 31
0.0
  0
LINE
  5
1F8
330
1F
100
AcDbEntity
  8
0
  6
Continuous
 62
     7
370
    15
100
AcDbLine
 10
39.7430917052
 20
96.8782474362
 30
0.0
 11
37.2921651443
 21
96.8782474362
 31
0.0
  0
LINE
  5
1F9
330
1F
100
AcDbEntity
  8
0
  6
Continuous
 62
     7
370
    15
100
AcDbLine
 10
37.2921651443
 20
96.8782474362
 30
0.0
 11
37.0661129201
 21
96.8782474362
 31
0.0
  0
SPLINE
  5
1FA
330
1F
100
AcDbEntity
  8
0
  6
Continuous
 62
     7
370
    15
100
AcDbSpline
210
0.0
220
0.0
230
1.0
 70
     8
 71
     3
 72
     9
 73
     5
 74
     0
 42
0.000000001
 43
0.00000001
 40
0.0
 40
0.0
 40
0.0
 40
0.0
 40
0.5000000000000046
 40
1.0
 40
1.0
 40
1.0
 40
1.0
 10
37.06611292007688
 20
96.87824743617401
 30
0.0
 10
36.99688802296813
 20
96.8777029086584
 30
0.0
 10
36.85843822875062
 20
96.87661385362723
 30
0.0
 10
36.72365057421445
 20
96.8777029086584
 30
0.0
 10
36.65625674694635
 20
96.87824743617401
 30
0.0
  0
LINE
  5
1FB
330
1F
100
AcDbEntity
  8
0
  6
Continuous
 62
     7
370
    15
100
AcDbLine
 10
38.1565811211
 20
97.8638246546
 30
0.0
 11
41.2065811211
 21
97.8638246546
 31
0.0
  0
LINE
  5
1FC
330
1F
100
AcDbEntity
  8
0
  6
Continuous
 62
     7
370
    15
100
AcDbLine
 10
35.1065811211
 20
97.8638246546
 30
0.0
 11
38.1565811211
 21
97.8638246546
 31
0.0
  0
SPLINE
  5
1FD
330
1F
100
AcDbEntity
  8
0
  6
Continuous
 62
     7
370
    15
100
AcDbSpline
210
0.0
220
0.0
230
1.0
 70
     8
 71
     3
 72
    12
 73
     8
 74
     0
 42
0.000000001
 43
0.00000001
 40
0.0
 40
0.0
 40
0.0
 40
0.0
 40
0.5000000000000001
 40
0.5000000000000001
 40
0.7500000000000002
 40
0.7500000000000002
 40
1.0
 40
1.0
 40
1.0
 40
1.0
 10
37.29216514430723
 20
96.87824743617401
 30
0.0
 10
37.70458247378265
 20
96.85375037915513
 30
0.0
 10
38.1175227668917
 20
96.84135326776286
 30
0.0
 10
38.73771894155722
 20
96.84123051969404
 30
0.0
 10
38.94521152836744
 20
96.84435674848957
 30
0.0
 10
39.34994642719439
 20
96.85675098083796
 30
0.0
 10
39.54846551885664
 20
96.8659968230794
 30
0.0
 10
39.74309170519309
 20
96.87824743617401
 30
0.0
  0
SPLINE
  5
1FE
330
1F
100
AcDbEntity
  8
0
  6
Continuous
 62
     7
370
    15
100
AcDbSpline
210
0.0
220
0.0
230
1.0
 70
     8
 71
     3
 72
     8
 73
     4
 74
     0
 42
0.000000001
 43
0.00000001
 40
0.0
 40
0.0
 40
0.0
 40
0.0
 40
1.0
 40
1.0
 40
1.0
 40
1.0
 10
36.79904406473732
 20
96.87817954480671
 30
0.0
 10
37.07304463921629
 20
96.59098215761736
 30
0.0
 10
37.3467756789582
 20
96.30283308031518
 30
0.0
 10
37.62065598336044
 20
96.01521103601435
 30
0.0
  0
SPLINE
  5
1FF
330
1F
100
AcDbEntity
  8
0
  6
Continuous
 62
     7
370
    15
100
AcDbSpline
210
0.0
220
0.0
230
1.0
 70
     8
 71
     3
 72
     8
 73
     4
 74
     0
 42
0.000000001
 43
0.00000001
 40
0.0
 40
0.0
 40
0.0
 40
0.0
 40
1.0
 40
1.0
 40
1.0
 40
1.0
 10
38.10956655434322
 20
95.61780570128357
 30
0.0
 10
37.83116722919907
 20
96.02281896455365
 30
0.0
 10
37.56123386433029
 20
96.4494302752509
 30
0.0
 10
37.29216514430718
 20
96.87824743617391
 30
0.0
  0
LINE
  5
200
330
1F
100
AcDbEntity
  8
0
  6
Continuous
 62
     7
370
    15
100
AcDbLine
 10
38.1095665543
 20
95.8038992091
 30
0.0
 11
38.1095665543
 21
95.6178057013
 31
0.0
  0
LINE
  5
201
330
1F
100
AcDbEntity
  8
0
  6
Continuous
 62
     7
370
    15
100
AcDbLine
 10
39.8402569918
 20
95.5280697097
 30
0.0
 11
37.9416848623
 21
95.5280697097
 31
0.0
  0
SPLINE
  5
202
330
1F
100
AcDbEntity
  8
0
  6
Continuous
 62
     7
370
    15
100
AcDbSpline
210
0.0
220
0.0
230
1.0
 70
     8
 71
     3
 72
     8
 73
     4
 74
     0
 42
0.000000001
 43
0.00000001
 40
0.0
 40
0.0
 40
0.0
 40
0.0
 40
1.0
 40
1.0
 40
1.0
 40
1.0
 10
37.94168486229285
 20
95.52806970968244
 30
0.0
 10
37.64475017865341
 20
95.96573968499852
 30
0.0
 10
37.35518367790828
 20
96.42138873054931
 30
0.0
 10
37.06611292007688
 20
96.87824743617401
 30
0.0
  0
SPLINE
  5
203
330
1F
100
AcDbEntity
  8
0
  6
Continuous
 62
     7
370
    15
100
AcDbSpline
210
0.0
220
0.0
230
1.0
 70
     8
 71
     3
 72
    10
 73
     6
 74
     0
 42
0.000000001
 43
0.00000001
 40
0.0
 40
0.0
 40
0.0
 40
0.0
 40
0.5
 40
0.5
 40
1.0
 40
1.0
 40
1.0
 40
1.0
 10
39.74309170519308
 20
96.87824743617401
 30
0.0
 10
39.48189996509002
 20
96.64541369414488
 30
0.0
 10
39.21767289426816
 20
96.41746267381588
 30
0.0
 10
38.67751040744699
 20
95.98787290085134
 30
0.0
 10
38.40213802052504
 20
95.78441447906286
 30
0.0
 10
38.10956655434327
 20
95.61780570128347
 30
0.0
  0
SPLINE
  5
204
330
1F
100
AcDbEntity
  8
0
  6
Continuous
 62
     7
370
    15
100
AcDbSpline
210
0.0
220
0.0
230
1.0
 70
     8
 71
     3
 72
    10
 73
     6
 74
     0
 42
0.000000001
 43
0.00000001
 40
0.0
 40
0.0
 40
0.0
 40
0.0
 40
0.5
 40
0.5
 40
1.0
 40
1.0
 40
1.0
 40
1.0
 10
40.32448872793571
 20
96.87824743617401
 30
0.0
 10
40.24555820528339
 20
96.64413947824661
 30
0.0
 10
40.1662059650394
 20
96.4121887020735
 30
0.0
 10
40.00551277689124
 20
95.95845984340603
 30
0.0
 10
39.92431493928263
 20
95.7359497190797
 30
0.0
 10
39.84025699180076
 20
95.52806970968238
 30
0.0
  0
SPLINE
  5
205
330
1F
100
AcDbEntity
  8
0
  6
Continuous
 62
     7
370
    15
100
AcDbSpline
210
0.0
220
0.0
230
1.0
 70
     8
 71
     3
 72
    10
 73
     6
 74
     0
 42
0.000000001
 43
0.00000001
 40
0.0
 40
0.0
 40
0.0
 40
0.0
 40
0.5
 40
0.5
 40
1.0
 40
1.0
 40
1.0
 40
1.0
 10
36.65625674694635
 20
96.87824743617401
 30
0.0
 10
36.86575518573203
 20
96.64417113637872
 30
0.0
 10
37.07646069178232
 20
96.41215431452437
 30
0.0
 10
37.50308531525126
 20
95.9583721346553
 30
0.0
 10
37.71896500832256
 20
95.73556026562574
 30
0.0
 10
37.94168486229285
 20
95.52806970968244
 30
0.0
  0
LINE
  5
206
330
1F
100
AcDbEntity
  8
0
  6
Continuous
 62
     7
370
    15
100
AcDbLine
 10
37.9416848623
 20
95.5280697097
 30
0.0
 11
36.2580089916
 21
95.5280697097
 31
0.0
  0
SPLINE
  5
207
330
1F
100
AcDbEntity
  8
0
  6
Continuous
 62
     7
370
    15
100
AcDbSpline
210
0.0
220
0.0
230
1.0
 70
     8
 71
     3
 72
     8
 73
     4
 74
     0
 42
0.000000001
 43
0.00000001
 40
0.0
 40
0.0
 40
0.0
 40
0.0
 40
1.0
 40
1.0
 40
1.0
 40
1.0
 10
36.25800899155542
 20
95.52806970968244
 30
0.0
 10
35.68211378804072
 20
95.96574046705516
 30
0.0
 10
35.12051041940482
 20
96.42138917857321
 30
0.0
 10
34.55986859693557
 20
96.878247436174
 30
0.0
  0
SPLINE
  5
208
330
1F
100
AcDbEntity
  8
0
  6
Continuous
 62
     7
370
    15
100
AcDbSpline
210
0.0
220
0.0
230
1.0
 70
     8
 71
     3
 72
     8
 73
     4
 74
     0
 42
0.000000001
 43
0.00000001
 40
0.0
 40
0.0
 40
0.0
 40
0.0
 40
1.0
 40
1.0
 40
1.0
 40
1.0
 10
36.24012951243751
 20
95.61780570128357
 30
0.0
 10
35.68800917261551
 20
96.02281911407209
 30
0.0
 10
35.15267877726517
 20
96.44943036594087
 30
0.0
 10
34.61906316308869
 20
96.87824743617394
 30
0.0
  0
SPLINE
  5
209
330
1F
100
AcDbEntity
  8
0
  6
Continuous
 62
     7
370
    15
100
AcDbSpline
210
0.0
220
0.0
230
1.0
 70
     8
 71
     3
 72
    10
 73
     6
 74
     0
 42
0.000000001
 43
0.00000001
 40
0.0
 40
0.0
 40
0.0
 40
0.0
 40
0.5
 40
0.5
 40
1.0
 40
1.0
 40
1.0
 40
1.0
 10
36.06615831601641
 20
96.87824743617401
 30
0.0
 10
36.09391786778297
 20
96.64589490710223
 30
0.0
 10
36.1220332337363
 20
96.41811044622933
 30
0.0
 10
36.17957846138849
 20
95.98832440642141
 30
0.0
 10
36.2089214129734
 20
95.78467702352425
 30
0.0
 10
36.24012951243751
 20
95.61780570128357
 30
0.0
  0
LINE
  5
20A
330
1F
100
AcDbEntity
  8
0
  6
Continuous
 62
     7
370
    15
100
AcDbLine
 10
36.2042623188
 20
95.830988745
 30
0.0
 11
34.8506706021
 21
96.8533205077
 31
0.0
  0
SPLINE
  5
20B
330
1F
100
AcDbEntity
  8
0
  6
Continuous
 62
     7
370
    15
100
AcDbSpline
210
0.0
220
0.0
230
1.0
 70
     8
 71
     3
 72
    12
 73
     8
 74
     0
 42
0.000000001
 43
0.00000001
 40
0.0
 40
0.0
 40
0.0
 40
0.0
 40
0.4999999999999998
 40
0.4999999999999998
 40
0.7499999999999999
 40
0.7499999999999999
 40
1.0
 40
1.0
 40
1.0
 40
1.0
 10
34.61906316308875
 20
96.87824743617401
 30
0.0
 10
34.76517559126743
 20
96.85375056942766
 30
0.0
 10
34.96057662827319
 20
96.84135303382949
 30
0.0
 10
35.32628657412636
 20
96.84123063321343
 30
0.0
 10
35.46106012027319
 20
96.84435717786822
 30
0.0
 10
35.74885653332311
 20
96.85675155667093
 30
0.0
 10
35.90254919583887
 20
96.86599730384351
 30
0.0
 10
36.06615831601641
 20
96.87824743617401
 30
0.0
  0
SPLINE
  5
20C
330
1F
100
AcDbEntity
  8
0
  6
Continuous
 62
     7
370
    15
100
AcDbSpline
210
0.0
220
0.0
230
1.0
 70
     8
 71
     3
 72
     8
 73
     4
 74
     0
 42
0.000000001
 43
0.00000001
 40
0.0
 40
0.0
 40
0.0
 40
0.0
 40
1.0
 40
1.0
 40
1.0
 40
1.0
 10
39.99325280306043
 20
95.92908155603385
 30
0.0
 10
40.18606740318869
 20
96.2453034235716
 30
0.0
 10
40.37842995621511
 20
96.56240998763477
 30
0.0
 10
40.57147349397501
 20
96.87818380379373
 30
0.0
  0
LINE
  5
20D
330
1F
100
AcDbEntity
  8
0
  6
Continuous
 62
     7
370
    15
100
AcDbLine
 10
40.2359273277
 20
95.5280697097
 30
0.0
 11
39.8402569918
 21
95.5280697097
 31
0.0
  0
SPLINE
  5
20E
330
1F
100
AcDbEntity
  8
0
  6
Continuous
 62
     7
370
    15
100
AcDbSpline
210
0.0
220
0.0
230
1.0
 70
     8
 71
     3
 72
     8
 73
     4
 74
     0
 42
0.000000001
 43
0.00000001
 40
0.0
 40
0.0
 40
0.0
 40
0.0
 40
1.0
 40
1.0
 40
1.0
 40
1.0
 10
39.84025699180075
 20
95.52806970968244
 30
0.0
 10
40.1192170517984
 20
95.96574057798566
 30
0.0
 10
40.39125413386203
 20
96.42138924212276
 30
0.0
 10
40.66282544420461
 20
96.878247436174
 30
0.0
  0
SPLINE
  5
20F
330
1F
100
AcDbEntity
  8
0
  6
Continuous
 62
     7
370
    15
100
AcDbSpline
210
0.0
220
0.0
230
1.0
 70
     8
 71
     3
 72
     8
 73
     4
 74
     0
 42
0.000000001
 43
0.00000001
 40
0.0
 40
0.0
 40
0.0
 40
0.0
 40
1.0
 40
1.0
 40
1.0
 40
1.0
 10
40.02601816296904
 20
95.61780570128357
 30
0.0
 10
40.29973898394861
 20
96.02281897953888
 30
0.0
 10
40.56513610088219
 20
96.44943028434017
 30
0.0
 10
40.82968310228183
 20
96.87824743617391
 30
0.0
  0
SPLINE
  5
210
330
1F
100
AcDbEntity
  8
0
  6
Continuous
 62
     7
370
    15
100
AcDbSpline
210
0.0
220
0.0
230
1.0
 70
     8
 71
     3
 72
    10
 73
     6
 74
     0
 42
0.000000001
 43
0.00000001
 40
0.0
 40
0.0
 40
0.0
 40
0.0
 40
0.5
 40
0.5
 40
1.0
 40
1.0
 40
1.0
 40
1.0
 10
41.83351451024001
 20
96.87824743617401
 30
0.0
 10
41.54426814737426
 20
96.64522229317079
 30
0.0
 10
41.25128523487768
 20
96.41680383835535
 30
0.0
 10
40.65312913882884
 20
95.98697057692488
 30
0.0
 10
40.34846671518837
 20
95.78375473918405
 30
0.0
 10
40.02601816296905
 20
95.61780570128357
 30
0.0
  0
LINE
  5
211
330
1F
100
AcDbEntity
  8
0
  6
Continuous
 62
     7
370
    15
100
AcDbLine
 10
41.5595677393
 20
96.8426834411
 30
0.0
 11
40.2428573104
 21
95.9507800734
 31
0.0
  0
SPLINE
  5
212
330
1F
100
AcDbEntity
  8
0
  6
Continuous
 62
     7
370
    15
100
AcDbSpline
210
0.0
220
0.0
230
1.0
 70
     8
 71
     3
 72
    12
 73
     8
 74
     0
 42
0.000000001
 43
0.00000001
 40
0.0
 40
0.0
 40
0.0
 40
0.0
 40
0.4999999999999999
 40
0.4999999999999999
 40
0.7499999999999999
 40
0.7499999999999999
 40
1.0
 40
1.0
 40
1.0
 40
1.0
 10
40.82968310228179
 20
96.87824743617401
 30
0.0
 10
41.0959572191401
 20
96.85375310659211
 30
0.0
 10
41.31350554825055
 20
96.841353502029
 30
0.0
 10
41.5680277580212
 20
96.8412304058797
 30
0.0
 10
41.64074791184643
 20
96.84435696296583
 30
0.0
 10
41.75767930773777
 20
96.85675080179455
 30
0.0
 10
41.80250290666461
 20
96.86599644448407
 30
0.0
 10
41.83351451024001
 20
96.87824743617401
 30
0.0
  0
SPLINE
  5
213
330
1F
100
AcDbEntity
  8
0
  6
Continuous
 62
     7
370
    15
100
AcDbSpline
210
0.0
220
0.0
230
1.0
 70
     8
 71
     3
 72
    21
 73
    17
 74
     0
 42
0.000000001
 43
0.00000001
 40
0.0
 40
0.0
 40
0.0
 40
0.0
 40
0.068761511453314
 40
0.1374673371828318
 40
0.2062137508844679
 40
0.2749267197338485
 40
0.3543445698846039
 40
0.4337452464796496
 40
0.5130749743136659
 40
0.5924329346649096
 40
0.6717954067031991
 40
0.7512252827231986
 40
0.8305897784832351
 40
0.9099466423607491
 40
0.989276921679465
 40
1.0
 40
1.0
 40
1.0
 40
1.0
 10
36.69415829868743
 20
74.8753818279972
 30
0.0
 10
36.80311689723483
 20
74.89639375435691
 30
0.0
 10
37.02094585545449
 20
74.938400590808
 30
0.0
 10
37.39680203789779
 20
75.0015174884204
 30
0.0
 10
37.79564541138707
 20
75.06451504799301
 30
0.0
 10
38.22802314182258
 20
75.13088243881586
 30
0.0
 10
38.67910775627673
 20
75.20041663102668
 30
0.0
 10
39.12965094139381
 20
75.27321719766309
 30
0.0
 10
39.53985490069628
 20
75.34611137687277
 30
0.0
 10
39.8869352378868
 20
75.41891495577183
 30
0.0
 10
40.15785829432862
 20
75.49179744124656
 30
0.0
 10
40.34476441437904
 20
75.56454285217154
 30
0.0
 10
40.44323559568576
 20
75.63742356970054
 30
0.0
 10
40.43338113326426
 20
75.71022466666558
 30
0.0
 10
40.37493509875805
 20
75.76210615102418
 30
0.0
 10
40.29829521977462
 20
75.78963946053562
 30
0.0
 10
40.28916934766546
 20
75.79291798164861
 30
0.0
  0
SPLINE
  5
214
330
1F
100
AcDbEntity
  8
0
  6
Continuous
 62
     7
370
    15
100
AcDbSpline
210
0.0
220
0.0
230
1.0
 70
     8
 71
     3
 72
    27
 73
    23
 74
     0
 42
0.000000001
 43
0.00000001
 40
0.0
 40
0.0
 40
0.0
 40
0.0
 40
0.0073474610400065
 40
0.0613273738762744
 40
0.1152849795846566
 40
0.1692969040191208
 40
0.223310033813015
 40
0.27726790163842
 40
0.3312482597048452
 40
0.3852203814701921
 40
0.4392453546869654
 40
0.4932355205788142
 40
0.5472055936659669
 40
0.6011688404170884
 40
0.6551657408355616
 40
0.7091886061667382
 40
0.7631551151661768
 40
0.8171366891377266
 40
0.8710968536100421
 40
0.9251145872664857
 40
0.979120935898163
 40
1.0
 40
1.0
 40
1.0
 40
1.0
 10
36.021920855106
 20
76.64715147131248
 30
0.0
 10
36.0127068016925
 20
76.65045643049756
 30
0.0
 10
35.93579945975093
 20
76.67804207763258
 30
0.0
 10
35.87988780526964
 20
76.72987242793202
 30
0.0
 10
35.87228672685423
 20
76.80277673860029
 30
0.0
 10
35.96976840393489
 20
76.87556340859241
 30
0.0
 10
36.15543239225844
 20
76.94834646254685
 30
0.0
 10
36.42652278700444
 20
77.02125308286153
 30
0.0
 10
36.77644978740194
 20
77.09404129087305
 30
0.0
 10
37.18678849361319
 20
77.16693974642853
 30
0.0
 10
37.63690758473829
 20
77.23968892757021
 30
0.0
 10
38.10893832809771
 20
77.3125441410826
 30
0.0
 10
38.58405267172004
 20
77.38537911174342
 30
0.0
 10
39.03944112597782
 20
77.45824279868515
 30
0.0
 10
39.4560482023502
 20
77.53107522517638
 30
0.0
 10
39.81856400327514
 20
77.60383095268091
 30
0.0
 10
40.11232926701831
 20
77.67673737095211
 30
0.0
 10
40.31878138476847
 20
77.74951953760394
 30
0.0
 10
40.428929698162
 20
77.82242946615652
 30
0.0
 10
40.43769737293377
 20
77.89520097634373
 30
0.0
 10
40.3870783524002
 20
77.95313269265242
 30
0.0
 10
40.30097839350724
 20
77.98682991524566
 30
0.0
 10
40.27697256252799
 20
77.99622515585256
 30
0.0
  0
SPLINE
  5
215
330
1F
100
AcDbEntity
  8
0
  6
Continuous
 62
     7
370
    15
100
AcDbSpline
210
0.0
220
0.0
230
1.0
 70
     8
 71
     3
 72
    28
 73
    24
 74
     0
 42
0.000000001
 43
0.00000001
 40
0.0
 40
0.0
 40
0.0
 40
0.0
 40
0.0524514849237266
 40
0.1004895731793136
 40
0.1484871728681819
 40
0.1965115450987755
 40
0.2445157026757153
 40
0.2925676687928345
 40
0.3406150522790506
 40
0.3886152300163271
 40
0.4366410394214456
 40
0.4846395372754443
 40
0.5326835133324551
 40
0.5807379037322253
 40
0.6287453169909145
 40
0.6767677711058688
 40
0.7247661017739592
 40
0.7728001122657677
 40
0.8208586102591373
 40
0.8688759708355913
 40
0.9168892017511667
 40
0.9648951789868534
 40
1.0
 40
1.0
 40
1.0
 40
1.0
 10
36.02714082848816
 20
78.84417246694126
 30
0.0
 10
35.98156925461343
 20
78.86773644933967
 30
0.0
 10
35.89426061093173
 20
78.91288168282668
 30
0.0
 10
35.86850064665663
 20
78.97956126117734
 30
0.0
 10
35.91455260261063
 20
79.04436826936309
 30
0.0
 10
36.04291851447714
 20
79.10905232267596
 30
0.0
 10
36.24497451318233
 20
79.17385958566037
 30
0.0
 10
36.510253147648
 20
79.23855328740989
 30
0.0
 10
36.82946602882819
 20
79.30325534640792
 30
0.0
 10
37.19338398973632
 20
79.36806600753307
 30
0.0
 10
37.59197230451954
 20
79.43274498343095
 30
0.0
 10
38.01028614711689
 20
79.49755481499227
 30
0.0
 10
38.43282207702174
 20
79.56226344806076
 30
0.0
 10
38.84625391033919
 20
79.62695317502042
 30
0.0
 10
39.23732063686636
 20
79.69175475186574
 30
0.0
 10
39.59119830136836
 20
79.75644789264832
 30
0.0
 10
39.89301321075631
 20
79.82124279744586
 30
0.0
 10
40.13586160969536
 20
79.88597305416201
 30
0.0
 10
40.31350043442875
 20
79.95065673796482
 30
0.0
 10
40.42081581236204
 20
80.01543449044314
 30
0.0
 10
40.44793442404944
 20
80.0801627699751
 30
0.0
 10
40.40516604419179
 20
80.13911884053353
 30
0.0
 10
40.32279165932414
 20
80.17646240214656
 30
0.0
 10
40.28799788886619
 20
80.19223579229609
 30
0.0
  0
SPLINE
  5
216
330
1F
100
AcDbEntity
  8
0
  6
Continuous
 62
     7
370
    15
100
AcDbSpline
210
0.0
220
0.0
230
1.0
 70
     8
 71
     3
 72
    27
 73
    23
 74
     0
 42
0.000000001
 43
0.00000001
 40
0.0
 40
0.0
 40
0.0
 40
0.0
 40
0.0037668357550486
 40
0.0576862977503363
 40
0.1115871001818626
 40
0.165545413577064
 40
0.2194844943392656
 40
0.2733820405270583
 40
0.3272936560165471
 40
0.3812166261379397
 40
0.4351799914778328
 40
0.48909415005097
 40
0.5430105962132772
 40
0.5969056898896672
 40
0.6508526710579128
 40
0.7048056627449318
 40
0.7587020374679277
 40
0.8126207246252521
 40
0.8665277372643191
 40
0.9204894319207763
 40
0.9744204043306296
 40
1.0
 40
1.0
 40
1.0
 40
1.0
 10
36.02104261801208
 20
81.04617549695507
 30
0.0
 10
36.01619847455014
 20
81.04787215435604
 30
0.0
 10
35.94201400772894
 20
81.07385520495274
 30
0.0
 10
35.88596819520279
 20
81.12407101755846
 30
0.0
 10
35.86957950207078
 20
81.19698163395543
 30
0.0
 10
35.95878391312558
 20
81.26974321740981
 30
0.0
 10
36.13640613476351
 20
81.34256087847974
 30
0.0
 10
36.40136301185806
 20
81.41544099211356
 30
0.0
 10
36.74680647773363
 20
81.48825906360786
 30
0.0
 10
37.15276015356437
 20
81.56112841407615
 30
0.0
 10
37.59996507658529
 20
81.63387504154963
 30
0.0
 10
38.07088372930239
 20
81.70676530710234
 30
0.0
 10
38.54649696461257
 20
81.77956106586775
 30
0.0
 10
39.00392102189939
 20
81.85246161565114
 30
0.0
 10
39.42459541395569
 20
81.92525538451618
 30
0.0
 10
39.79269319684464
 20
81.99803211858836
 30
0.0
 10
40.09273470535118
 20
82.07094111159637
 30
0.0
 10
40.30490808421523
 20
82.14372584890523
 30
0.0
 10
40.42271767301787
 20
82.21662840211656
 30
0.0
 10
40.44077686339702
 20
82.28938098151171
 30
0.0
 10
40.39347529492402
 20
82.3494709534624
 30
0.0
 10
40.304362444435
 20
82.38528233808069
 30
0.0
 10
40.27569366820159
 20
82.39680333159167
 30
0.0
  0
SPLINE
  5
217
330
1F
100
AcDbEntity
  8
0
  6
Continuous
 62
     7
370
    15
100
AcDbSpline
210
0.0
220
0.0
230
1.0
 70
     8
 71
     3
 72
    28
 73
    24
 74
     0
 42
0.000000001
 43
0.00000001
 40
0.0
 40
0.0
 40
0.0
 40
0.0
 40
0.0403635153118379
 40
0.0942061794933903
 40
0.1477596374049916
 40
0.2007940761236359
 40
0.253111003837327
 40
0.3048574868669228
 40
0.3559974015703322
 40
0.4064478069155237
 40
0.4561936348654722
 40
0.5051911887718677
 40
0.5536073479821745
 40
0.6014302039535863
 40
0.6485760658254657
 40
0.6950252727416041
 40
0.7407158459919646
 40
0.7858100492463604
 40
0.8303215833016816
 40
0.8741710038104811
 40
0.9173302868358859
 40
0.9701835426624216
 40
1.0
 40
1.0
 40
1.0
 40
1.0
 10
36.02644057139022
 20
83.2454053641721
 30
0.0
 10
35.99031492961909
 20
83.2617671543081
 30
0.0
 10
35.90599970913563
 20
83.29995465424406
 30
0.0
 10
35.87189363396925
 20
83.35986086144185
 30
0.0
 10
35.91436227144588
 20
83.42527656058175
 30
0.0
 10
36.05026492127635
 20
83.49066895829763
 30
0.0
 10
36.25536891071749
 20
83.55634272722642
 30
0.0
 10
36.52017531144186
 20
83.62185026639513
 30
0.0
 10
36.83300667966167
 20
83.68733467051231
 30
0.0
 10
37.18328568150505
 20
83.75288036157552
 30
0.0
 10
37.55963436473372
 20
83.81836860413381
 30
0.0
 10
37.9463248719992
 20
83.88405316681047
 30
0.0
 10
38.32913039039099
 20
83.94957900626574
 30
0.0
 10
38.69590376591697
 20
84.01505547078156
 30
0.0
 10
39.03474955706636
 20
84.08059927996042
 30
0.0
 10
39.3319735386415
 20
84.14606805572669
 30
0.0
 10
39.57680727139333
 20
84.21175670231504
 30
0.0
 10
39.76545019197175
 20
84.27730252405772
 30
0.0
 10
39.89442599902127
 20
84.3427770265156
 30
0.0
 10
39.96183308043427
 20
84.40830709488841
 30
0.0
 10
39.95934833856815
 20
84.47907603023492
 30
0.0
 10
39.89497392151357
 20
84.5440407406901
 30
0.0
 10
39.79292619137453
 20
84.58763362452578
 30
0.0
 10
39.7561206712435
 20
84.60335625511635
 30
0.0
  0
SPLINE
  5
218
330
1F
100
AcDbEntity
  8
0
  6
Continuous
 62
     7
370
    15
100
AcDbSpline
210
0.0
220
0.0
230
1.0
 70
     8
 71
     3
 72
    22
 73
    18
 74
     0
 42
0.000000001
 43
0.00000001
 40
0.0
 40
0.0
 40
0.0
 40
0.0
 40
0.0394336221553935
 40
0.1095470437920501
 40
0.1816913439066279
 40
0.2518173068642948
 40
0.3239857227359362
 40
0.3939725886261338
 40
0.4659784894792344
 40
0.5361488463513543
 40
0.6083597164151167
 40
0.6784227845816406
 40
0.750521284586827
 40
0.8205385252890308
 40
0.8925750330928867
 40
0.9627714923983081
 40
1.0
 40
1.0
 40
1.0
 40
1.0
 10
39.21977768143707
 20
84.01379264963055
 30
0.0
 10
39.19347637593236
 20
84.00018916674047
 30
0.0
 10
39.12041105480721
 20
83.96239853898605
 30
0.0
 10
38.96446973684467
 20
83.89922285300413
 30
0.0
 10
38.76273659443951
 20
83.8266591182486
 30
0.0
 10
38.53833371202685
 20
83.75420815339551
 30
0.0
 10
38.30478643636761
 20
83.68205358864907
 30
0.0
 10
38.06482727326503
 20
83.60839472116095
 30
0.0
 10
37.83006255733695
 20
83.53472942950425
 30
0.0
 10
37.60296021301455
 20
83.46074203125353
 30
0.0
 10
37.3945853114683
 20
83.38881622953325
 30
0.0
 10
37.20824761803481
 20
83.3162393696189
 30
0.0
 10
37.05338921784242
 20
83.24366418335663
 30
0.0
 10
36.93107900527259
 20
83.16954961021571
 30
0.0
 10
36.84978395972504
 20
83.09594474233954
 30
0.0
 10
36.80819773550067
 20
83.03445553452518
 30
0.0
 10
36.8110799468956
 20
83.00074047235792
 30
0.0
 10
36.81207878759264
 20
82.98905639663212
 30
0.0
  0
SPLINE
  5
219
330
1F
100
AcDbEntity
  8
0
  6
Continuous
 62
     7
370
    15
100
AcDbSpline
210
0.0
220
0.0
230
1.0
 70
     8
 71
     3
 72
    23
 73
    19
 74
     0
 42
0.000000001
 43
0.00000001
 40
0.0
 40
0.0
 40
0.0
 40
0.0
 40
0.0181940528654122
 40
0.0867846667178551
 40
0.1533268432408688
 40
0.2217979751251202
 40
0.2883629117135253
 40
0.3568527376746791
 40
0.423492124600227
 40
0.4920709832078879
 40
0.5585941184747731
 40
0.6270424641505961
 40
0.6936413812514901
 40
0.7621698616638747
 40
0.828783182610498
 40
0.8973340261035425
 40
0.96385547118141
 40
1.0
 40
1.0
 40
1.0
 40
1.0
 10
39.29610516458839
 20
81.68828552053755
 30
0.0
 10
39.28586756177101
 20
81.68281083609885
 30
0.0
 10
39.23703473958082
 20
81.6566968818352
 30
0.0
 10
39.11617934679846
 20
81.6111657844969
 30
0.0
 10
38.93666776877744
 20
81.5502878165124
 30
0.0
 10
38.73283092303425
 20
81.48941482889735
 30
0.0
 10
38.51049266874102
 20
81.42733551504158
 30
0.0
 10
38.2791191875126
 20
81.36613975954808
 30
0.0
 10
38.0415953745765
 20
81.30536965222885
 30
0.0
 10
37.80969304380021
 20
81.2452616706366
 30
0.0
 10
37.58651666327044
 20
81.18415787084052
 30
0.0
 10
37.38274457133575
 20
81.12295096065134
 30
0.0
 10
37.20057314039206
 20
81.0608041492754
 30
0.0
 10
37.04874511274117
 20
81.0001858242809
 30
0.0
 10
36.92867696162245
 20
80.93954382154728
 30
0.0
 10
36.8489316569632
 20
80.87928423924612
 30
0.0
 10
36.80834478741799
 20
80.82762501967215
 30
0.0
 10
36.81091321693754
 20
80.79635723928602
 30
0.0
 10
36.81181745688447
 20
80.78534912095463
 30
0.0
  0
SPLINE
  5
21A
330
1F
100
AcDbEntity
  8
0
  6
Continuous
 62
     7
370
    15
100
AcDbSpline
210
0.0
220
0.0
230
1.0
 70
     8
 71
     3
 72
    23
 73
    19
 74
     0
 42
0.000000001
 43
0.00000001
 40
0.0
 40
0.0
 40
0.0
 40
0.0
 40
0.0152052461140892
 40
0.0836228444037954
 40
0.1502239968570613
 40
0.2187584030517465
 40
0.2853180608557084
 40
0.3538115917371549
 40
0.4203173627747561
 40
0.4887446742690745
 40
0.5553682951586838
 40
0.6239293520109299
 40
0.6904555769319972
 40
0.7589114471813003
 40
0.825440719212961
 40
0.8938930250585183
 40
0.9605124685852203
 40
1.0
 40
1.0
 40
1.0
 40
1.0
 10
39.29706328503083
 20
79.48954488879781
 30
0.0
 10
39.28860197510084
 20
79.48496111226811
 30
0.0
 10
39.24206811445701
 20
79.4597521528965
 30
0.0
 10
39.12454898438992
 20
79.41382935120656
 30
0.0
 10
38.94679500038337
 20
79.35196460288462
 30
0.0
 10
38.74363624707007
 20
79.29169064638768
 30
0.0
 10
38.52150214120066
 20
79.23104150717126
 30
0.0
 10
38.29035241516012
 20
79.17057948544887
 30
0.0
 10
38.0533458549157
 20
79.10887894000354
 30
0.0
 10
37.82161310836438
 20
79.04728981462283
 30
0.0
 10
37.59759183459531
 20
78.98595067439521
 30
0.0
 10
37.39230674596169
 20
78.92585271242484
 30
0.0
 10
37.20856400722136
 20
78.86508455154414
 30
0.0
 10
37.05540508854907
 20
78.80430946756934
 30
0.0
 10
36.9339072318086
 20
78.74231414825185
 30
0.0
 10
36.85212917035812
 20
78.68094221572102
 30
0.0
 10
36.80927835509936
 20
78.62878617346381
 30
0.0
 10
36.81107775852466
 20
78.59712872650637
 30
0.0
 10
36.81174740346859
 20
78.58534746111894
 30
0.0
  0
SPLINE
  5
21B
330
1F
100
AcDbEntity
  8
0
  6
Continuous
 62
     7
370
    15
100
AcDbSpline
210
0.0
220
0.0
230
1.0
 70
     8
 71
     3
 72
    23
 73
    19
 74
     0
 42
0.000000001
 43
0.00000001
 40
0.0
 40
0.0
 40
0.0
 40
0.0
 40
0.0129997980389848
 40
0.0814799569898232
 40
0.1479059167351204
 40
0.216255789517015
 40
0.2827326180644701
 40
0.3511334272999037
 40
0.4176567665687268
 40
0.4861158200444581
 40
0.55253176102426
 40
0.6208685446328674
 40
0.6873799206035179
 40
0.7558205086522772
 40
0.8223128046325052
 40
0.8907379530519667
 40
0.9571596370545841
 40
1.0
 40
1.0
 40
1.0
 40
1.0
 10
39.29964364980037
 20
77.28977798862708
 30
0.0
 10
39.29249772509179
 20
77.285873177475
 30
0.0
 10
39.24770859558677
 20
77.26139865535009
 30
0.0
 10
39.13238650682808
 20
77.21739682489971
 30
0.0
 10
38.95591673648715
 20
77.15639995311052
 30
0.0
 10
38.75412536116961
 20
77.09536397839616
 30
0.0
 10
38.53325922253633
 20
77.03321195329352
 30
0.0
 10
38.30253063480031
 20
76.97230256348614
 30
0.0
 10
38.06504007641598
 20
76.91161852337888
 30
0.0
 10
37.83252184366858
 20
76.85145419141989
 30
0.0
 10
37.60804224248616
 20
76.79019120552714
 30
0.0
 10
37.4022874895369
 20
76.72883602477756
 30
0.0
 10
37.21745123766313
 20
76.66679165801519
 30
0.0
 10
37.06245662083649
 20
76.60641664990503
 30
0.0
 10
36.93893796843309
 20
76.54577499661066
 30
0.0
 10
36.85513222768088
 20
76.48541092651267
 30
0.0
 10
36.8102619602267
 20
76.43153335865374
 30
0.0
 10
36.81114810298182
 20
76.39819722521234
 30
0.0
 10
36.81149554912906
 20
76.38512651954905
 30
0.0
  0
SPLINE
  5
21C
330
1F
100
AcDbEntity
  8
0
  6
Continuous
 62
     7
370
    15
100
AcDbSpline
210
0.0
220
0.0
230
1.0
 70
     8
 71
     3
 72
    23
 73
    19
 74
     0
 42
0.000000001
 43
0.00000001
 40
0.0
 40
0.0
 40
0.0
 40
0.0
 40
0.00769067743464
 40
0.0761651905155426
 40
0.1428324751738093
 40
0.2114368688764885
 40
0.2780319387435545
 40
0.3465603516704825
 40
0.4131289809831018
 40
0.4816210708989213
 40
0.5482996954904681
 40
0.6169184387019018
 40
0.6834835837972107
 40
0.751977799854871
 40
0.8185750359791649
 40
0.8870985771694669
 40
0.9537617842796489
 40
0.9999999999999999
 40
0.9999999999999999
 40
0.9999999999999999
 40
0.9999999999999999
 10
39.2968850383994
 20
75.08873263819814
 30
0.0
 10
39.29269979187689
 20
75.08640951842573
 30
0.0
 10
39.25125089463079
 20
75.06340233062474
 30
0.0
 10
39.14053918143667
 20
75.01968665961284
 30
0.0
 10
38.96591228588784
 20
74.95809730962526
 30
0.0
 10
38.76468370146471
 20
74.89792843677175
 30
0.0
 10
38.54409956769015
 20
74.83723837314193
 30
0.0
 10
38.31379940311193
 20
74.77662486703692
 30
0.0
 10
38.07691622022386
 20
74.7147711444206
 30
0.0
 10
37.84451237392802
 20
74.65323335735373
 30
0.0
 10
37.61907698838591
 20
74.59216875525198
 30
0.0
 10
37.41183339313407
 20
74.53208854650136
 30
0.0
 10
37.22556443284231
 20
74.47121685611833
 30
0.0
 10
37.06935417195614
 20
74.41027874361173
 30
0.0
 10
36.94439207198874
 20
74.34817444228578
 30
0.0
 10
36.85852591466418
 20
74.28705904741322
 30
0.0
 10
36.8112469696258
 20
74.23301724789783
 30
0.0
 10
36.81123251731069
 20
74.1993259322796
 30
0.0
 10
36.81122659843697
 20
74.18552782167654
 30
0.0
  0
SPLINE
  5
21D
330
1F
100
AcDbEntity
  8
0
  6
Continuous
 62
     7
370
    15
100
AcDbSpline
210
0.0
220
0.0
230
1.0
 70
     8
 71
     3
 72
    10
 73
     6
 74
     0
 42
0.000000001
 43
0.00000001
 40
0.0
 40
0.0
 40
0.0
 40
0.0
 40
0.0238951657455293
 40
0.4811644736521614
 40
1.0
 40
1.0
 40
1.0
 40
1.0
 10
39.2964226739552
 20
72.8874928409511
 30
0.0
 10
39.2944883717919
 20
72.88642082741254
 30
0.0
 10
39.25553833929578
 20
72.86483425063261
 30
0.0
 10
39.14100335163554
 20
72.82029351097296
 30
0.0
 10
39.00991956101745
 20
72.77614460332187
 30
0.0
 10
38.94024371769171
 20
72.75267783936887
 30
0.0
  0
SPLINE
  5
21E
330
1F
100
AcDbEntity
  8
0
  6
Continuous
 62
     7
370
    15
100
AcDbSpline
210
0.0
220
0.0
230
1.0
 70
     8
 71
     3
 72
    11
 73
     7
 74
     0
 42
0.000000001
 43
0.00000001
 40
0.0
 40
0.0
 40
0.0
 40
0.0
 40
0.0005362497384225
 40
0.0005362497384225
 40
0.0005362497384225
 40
0.0006901317944879
 40
0.0006901317944879
 40
0.0006901317944879
 40
0.0006901317944879
 10
39.56195138065804
 20
73.0419313778954
 30
0.0
 10
39.40047659423225
 20
72.96837964126456
 30
0.0
 10
39.23930913653025
 20
72.89381616542192
 30
0.0
 10
39.07855527315676
 20
72.81810503763829
 30
0.0
 10
39.03242374815129
 20
72.79637822055751
 30
0.0
 10
38.9863231930504
 20
72.77456174405431
 30
0.0
 10
38.94024371769171
 20
72.75267783936887
 30
0.0
  0
SPLINE
  5
21F
330
1F
100
AcDbEntity
  8
0
  6
Continuous
 62
     7
370
    15
100
AcDbSpline
210
0.0
220
0.0
230
1.0
 70
    24
 71
     3
 72
     8
 73
     4
 74
     0
 42
0.000000001
 43
0.00000001
 40
0.0
 40
0.0
 40
0.0
 40
0.0
 40
1.0
 40
1.0
 40
1.0
 40
1.0
 10
39.56195138065738
 20
73.04193137789375
 30
0.0
 10
39.57345365347606
 20
73.07051297286574
 30
0.0
 10
39.59070307475665
 20
73.11337545581281
 30
0.0
 10
39.61052580248325
 20
73.16263225784256
 30
0.0
  0
SPLINE
  5
220
330
1F
100
AcDbEntity
  8
0
  6
Continuous
 62
     7
370
    15
100
AcDbSpline
210
0.0
220
0.0
230
1.0
 70
     8
 71
     3
 72
    13
 73
     9
 74
     0
 42
0.000000001
 43
0.00000001
 40
0.0
 40
0.0
 40
0.0
 40
0.0
 40
0.1668686360281975
 40
0.3335598893037637
 40
0.5003179226927615
 40
0.6681758788949691
 40
0.8362105892692033
 40
1.0
 40
1.0
 40
1.0
 40
1.0
 10
39.6105258058649
 20
73.16263226016034
 30
0.0
 10
39.7253396299885
 20
73.18673466737974
 30
0.0
 10
39.95484523018254
 20
73.2349138607585
 30
0.0
 10
40.20920691337707
 20
73.30732096791967
 30
0.0
 10
40.37762832220574
 20
73.37976665145094
 30
0.0
 10
40.4445151303445
 20
73.45250958805252
 30
0.0
 10
40.42342014523884
 20
73.52466069072102
 30
0.0
 10
40.33127952555678
 20
73.57263307182292
 30
0.0
 10
40.28579863118467
 20
73.59631238725625
 30
0.0
  0
SPLINE
  5
221
330
1F
100
AcDbEntity
  8
0
  6
Continuous
 62
     7
370
    15
100
AcDbSpline
210
0.0
220
0.0
230
1.0
 70
     8
 71
     3
 72
    13
 73
     9
 74
     0
 42
0.000000001
 43
0.00000001
 40
0.0
 40
0.0
 40
0.0
 40
0.0
 40
0.0877805443935731
 40
0.3093369164123441
 40
0.4820702300712638
 40
0.6546716586646778
 40
0.8273984941733712
 40
1.0
 40
1.0
 40
1.0
 40
1.0
 10
36.03808724331915
 20
74.44322100593101
 30
0.0
 10
36.01357816073084
 20
74.45285037314866
 30
0.0
 10
35.92720863449539
 20
74.48678407432008
 30
0.0
 10
35.88009534049445
 20
74.53959094088441
 30
0.0
 10
35.8781985528687
 20
74.60168075326014
 30
0.0
 10
35.94030993357042
 20
74.65851602107455
 30
0.0
 10
36.0588617269233
 20
74.71522942295715
 30
0.0
 10
36.18514870936831
 20
74.75310205688618
 30
0.0
 10
36.24826928398442
 20
74.77203150131143
 30
0.0
  0
SPLINE
  5
222
330
1F
100
AcDbEntity
  8
0
  6
Continuous
 62
     7
370
    15
100
AcDbSpline
210
0.0
220
0.0
230
1.0
 70
     8
 71
     3
 72
     8
 73
     4
 74
     0
 42
0.000000001
 43
0.00000001
 40
0.0
 40
0.0
 40
0.0
 40
0.0
 40
1.0
 40
1.0
 40
1.0
 40
1.0
 10
37.34756862846413
 20
74.61242575856848
 30
0.0
 10
36.97602693197862
 20
74.60937892394062
 30
0.0
 10
36.60882859994369
 20
74.68088177724533
 30
0.0
 10
36.24826928398442
 20
74.77203150131143
 30
0.0
  0
SPLINE
  5
223
330
1F
100
AcDbEntity
  8
0
  6
Continuous
 62
     7
370
    15
100
AcDbSpline
210
0.0
220
0.0
230
1.0
 70
    24
 71
     3
 72
    14
 73
    10
 74
     0
 42
0.000000001
 43
0.00000001
 40
0.0
 40
0.0
 40
0.0
 40
0.0
 40
0.0002681475658502
 40
0.0002681475658502
 40
0.0002681475658502
 40
0.000551869641168
 40
0.000551869641168
 40
0.000551869641168
 40
0.0008361423823637
 40
0.0008361423823637
 40
0.0008361423823637
 40
0.0008361423823637
 10
36.69415829869106
 20
74.87538182805564
 30
0.0
 10
36.76640988877928
 20
74.8463051617047
 30
0.0
 10
36.83806901776362
 20
74.81746692331168
 30
0.0
 10
36.90897501894207
 20
74.78893177085308
 30
0.0
 10
36.98399522581033
 20
74.75874091246473
 30
0.0
 10
37.05820042885694
 20
74.72887804124179
 30
0.0
 10
37.13132328514368
 20
74.69945074570019
 30
0.0
 10
37.20458313393748
 20
74.66996831939377
 30
0.0
 10
37.2767977049422
 20
74.64090655086777
 30
0.0
 10
37.34756862846417
 20
74.61242575856849
 30
0.0
  0
SPLINE
  5
224
330
1F
100
AcDbEntity
  8
0
  6
Continuous
 62
     7
370
    15
100
AcDbSpline
210
0.0
220
0.0
230
1.0
 70
     8
 71
     3
 72
     8
 73
     4
 74
     0
 42
0.000000001
 43
0.00000001
 40
0.0
 40
0.0
 40
0.0
 40
0.0
 40
1.0
 40
1.0
 40
1.0
 40
1.0
 10
39.61052580933615
 20
73.16263226327372
 30
0.0
 10
39.63747474909191
 20
73.2295967400485
 30
0.0
 10
39.66400180622269
 20
73.29551290705882
 30
0.0
 10
39.68952161603954
 20
73.3589261888898
 30
0.0
  0
SPLINE
  5
225
330
1F
100
AcDbEntity
  8
0
  6
Continuous
 62
     7
370
    15
100
AcDbSpline
210
0.0
220
0.0
230
1.0
 70
     8
 71
     3
 72
     8
 73
     4
 74
     0
 42
0.000000001
 43
0.00000001
 40
0.0
 40
0.0
 40
0.0
 40
0.0
 40
1.0
 40
1.0
 40
1.0
 40
1.0
 10
38.78276564566568
 20
73.47333946069567
 30
0.0
 10
39.08844578460798
 20
73.47430425316904
 30
0.0
 10
39.39091166708667
 20
73.42524868179274
 30
0.0
 10
39.68952161603777
 20
73.35892618888482
 30
0.0
  0
SPLINE
  5
226
330
1F
100
AcDbEntity
  8
0
  6
Continuous
 62
     7
370
    15
100
AcDbSpline
210
0.0
220
0.0
230
1.0
 70
     8
 71
     3
 72
    13
 73
     9
 74
     0
 42
0.000000001
 43
0.00000001
 40
0.0
 40
0.0
 40
0.0
 40
0.0
 40
0.2275000892044339
 40
0.3852494661418714
 40
0.5475574273059536
 40
0.7055836074253148
 40
0.8682020058138177
 40
1.0
 40
1.0
 40
1.0
 40
1.0
 10
38.78276564566568
 20
73.47333946069566
 30
0.0
 10
38.87803746155299
 20
73.50200550932645
 30
0.0
 10
39.03937109591467
 20
73.55054869878202
 30
0.0
 10
39.22207258563402
 20
73.62038663847704
 30
0.0
 10
39.35148674237478
 20
73.68194622908705
 30
0.0
 10
39.44432002158634
 20
73.74355332272143
 30
0.0
 10
39.49873398287929
 20
73.80039305291321
 30
0.0
 10
39.50225981244891
 20
73.8374699296183
 30
0.0
 10
39.50383817994759
 20
73.85406770781155
 30
0.0
  0
SPLINE
  5
227
330
1F
100
AcDbEntity
  8
0
  6
Continuous
 62
     7
370
    15
100
AcDbSpline
210
0.0
220
0.0
230
1.0
 70
     8
 71
     3
 72
    22
 73
    18
 74
     0
 42
0.000000001
 43
0.00000001
 40
0.0
 40
0.0
 40
0.0
 40
0.0
 40
0.0638074446687809
 40
0.1321724616889452
 40
0.1985762311803805
 40
0.2668986315475819
 40
0.3334146387073922
 40
0.4018658563080167
 40
0.4682710727316229
 40
0.536601072194425
 40
0.6030324325282703
 40
0.671384989853731
 40
0.7378875973910478
 40
0.8063256741669068
 40
0.8727129139719523
 40
0.9410212693003049
 40
1.0
 40
1.0
 40
1.0
 40
1.0
 10
37.01065265946405
 20
75.14928097687158
 30
0.0
 10
37.05263720884157
 20
75.16833634845337
 30
0.0
 10
37.1396051366897
 20
75.20780815904594
 30
0.0
 10
37.30973504416141
 20
75.26759682342981
 30
0.0
 10
37.50649864889525
 20
75.3294203110809
 30
0.0
 10
37.7217751442554
 20
75.39097710364665
 30
0.0
 10
37.95243939022326
 20
75.45209411763061
 30
0.0
 10
38.18738933844477
 20
75.51217535300252
 30
0.0
 10
38.42331932562045
 20
75.57302371710702
 30
0.0
 10
38.64881501166085
 20
75.63392773838571
 30
0.0
 10
38.86127790434866
 20
75.69601574006398
 30
0.0
 10
39.05082154883517
 20
75.7571800264224
 30
0.0
 10
39.21504261051075
 20
75.81793590504458
 30
0.0
 10
39.34601889042231
 20
75.87805301909832
 30
0.0
 10
39.4407977208439
 20
75.93916046688169
 30
0.0
 10
39.49757360567826
 20
75.99816083932319
 30
0.0
 10
39.50237169324736
 20
76.03696221768102
 30
0.0
 10
39.50459489690017
 20
76.05494091541348
 30
0.0
  0
SPLINE
  5
228
330
1F
100
AcDbEntity
  8
0
  6
Continuous
 62
     7
370
    15
100
AcDbSpline
210
0.0
220
0.0
230
1.0
 70
     8
 71
     3
 72
    22
 73
    18
 74
     0
 42
0.000000001
 43
0.00000001
 40
0.0
 40
0.0
 40
0.0
 40
0.0
 40
0.0577708851625095
 40
0.1263517105710917
 40
0.1930235473151498
 40
0.261634816477044
 40
0.3282107805486644
 40
0.3967113881576076
 40
0.4633950083117316
 40
0.5320145203805441
 40
0.5986527397474865
 40
0.6672269382831577
 40
0.733814343046641
 40
0.8023256315139559
 40
0.8690306301811744
 40
0.9376755883998117
 40
0.9999999999999999
 40
0.9999999999999999
 40
0.9999999999999999
 40
0.9999999999999999
 10
37.0171029447942
 20
77.3516482499235
 30
0.0
 10
37.0545441694446
 20
77.36924796745375
 30
0.0
 10
37.13643252492241
 20
77.40774061663612
 30
0.0
 10
37.30035048568522
 20
77.46575825346278
 30
0.0
 10
37.49627164864427
 20
77.52640502930036
 30
0.0
 10
37.71116386173578
 20
77.58663695989299
 30
0.0
 10
37.94105462601035
 20
77.64802962205329
 30
0.0
 10
38.17525992268072
 20
77.70949143324299
 30
0.0
 10
38.41119712987201
 20
77.77136793783195
 30
0.0
 10
38.63768480607344
 20
77.83161514153618
 30
0.0
 10
38.8515314462734
 20
77.89227049654023
 30
0.0
 10
39.04229086856137
 20
77.95274882318483
 30
0.0
 10
39.2075892650644
 20
78.01446904658016
 30
0.0
 10
39.34001053080344
 20
78.07605449390357
 30
0.0
 10
39.43692847907644
 20
78.13736894885001
 30
0.0
 10
39.49644483850966
 20
78.1961522945239
 30
0.0
 10
39.50250267503184
 20
78.23529650162028
 30
0.0
 10
39.505385418511
 20
78.2539240607069
 30
0.0
  0
SPLINE
  5
229
330
1F
100
AcDbEntity
  8
0
  6
Continuous
 62
     7
370
    15
100
AcDbSpline
210
0.0
220
0.0
230
1.0
 70
     8
 71
     3
 72
    22
 73
    18
 74
     0
 42
0.000000001
 43
0.00000001
 40
0.0
 40
0.0
 40
0.0
 40
0.0
 40
0.0575403762998369
 40
0.1258547668272901
 40
0.1922397833314787
 40
0.2605434542197924
 40
0.3270237126942642
 40
0.395438757006002
 40
0.4618013505459219
 40
0.5300858269948033
 40
0.5965024744274512
 40
0.6648415845132557
 40
0.7313010919261643
 40
0.7996943820670437
 40
0.8660480931868308
 40
0.9343207122824569
 40
1.0
 40
1.0
 40
1.0
 40
1.0
 10
37.01109056327113
 20
79.54866508043749
 30
0.0
 10
37.04809606674345
 20
79.56587099764067
 30
0.0
 10
37.12903608330792
 20
79.6035045140844
 30
0.0
 10
37.29154114681695
 20
79.66158624061725
 30
0.0
 10
37.48583305421128
 20
79.72354919978596
 30
0.0
 10
37.69953223889619
 20
79.78496605379922
 30
0.0
 10
37.92924221552205
 20
79.84585938619875
 30
0.0
 10
38.16387286455199
 20
79.90594435209216
 30
0.0
 10
38.4001520383786
 20
79.96691697601008
 30
0.0
 10
38.62671014303643
 20
80.02798298253072
 30
0.0
 10
38.84098258758338
 20
80.09013619421184
 30
0.0
 10
39.03299530769142
 20
80.15101153805254
 30
0.0
 10
39.20018156233887
 20
80.2116871637647
 30
0.0
 10
39.33445870625967
 20
80.27186491413806
 30
0.0
 10
39.43313710228408
 20
80.33313052759672
 30
0.0
 10
39.49520387615078
 20
80.39432999382713
 30
0.0
 10
39.50268489390714
 20
80.4350834864909
 30
0.0
 10
39.5063529859062
 20
80.45506573559683
 30
0.0
  0
SPLINE
  5
22A
330
1F
100
AcDbEntity
  8
0
  6
Continuous
 62
     7
370
    15
100
AcDbSpline
210
0.0
220
0.0
230
1.0
 70
     8
 71
     3
 72
    23
 73
    19
 74
     0
 42
0.000000001
 43
0.00000001
 40
0.0
 40
0.0
 40
0.0
 40
0.0
 40
0.0501537790416917
 40
0.1188196370818437
 40
0.1855386240312663
 40
0.2541973315104061
 40
0.3208404204657783
 40
0.3894093446150599
 40
0.4561693030171564
 40
0.5248692732255471
 40
0.5915535758796018
 40
0.6601736163069953
 40
0.7268348626922926
 40
0.7954222957891424
 40
0.8621920022120365
 40
0.9309045688129269
 40
0.9975594604316278
 40
1.0
 40
1.0
 40
1.0
 40
1.0
 10
37.01999385007469
 20
81.75269988822018
 30
0.0
 10
37.05173598059927
 20
81.76795147940594
 30
0.0
 10
37.12693646401647
 20
81.80408412113779
 30
0.0
 10
37.2824065786028
 20
81.85952590412313
 30
0.0
 10
37.47579693557035
 20
81.92017165188817
 30
0.0
 10
37.68897724962557
 20
81.98051096558501
 30
0.0
 10
37.91775707103114
 20
82.04206838966387
 30
0.0
 10
38.15163171651321
 20
82.1036267469847
 30
0.0
 10
38.38806118705437
 20
82.16522952099842
 30
0.0
 10
38.61565951943996
 20
82.22537613342178
 30
0.0
 10
38.83123495056711
 20
82.2860766556033
 30
0.0
 10
39.02425916490532
 20
82.34670832611117
 30
0.0
 10
39.19258892165926
 20
82.40857867232226
 30
0.0
 10
39.32792438038412
 20
82.4701074053096
 30
0.0
 10
39.43035848701587
 20
82.53112696922929
 30
0.0
 10
39.48852007085036
 20
82.59126736004485
 30
0.0
 10
39.51287355977414
 20
82.6322568071887
 30
0.0
 10
39.5060994824233
 20
82.6531115496468
 30
0.0
 10
39.50586021329175
 20
82.65384816599439
 30
0.0
  0
SPLINE
  5
22B
330
1F
100
AcDbEntity
  8
0
  6
Continuous
 62
     7
370
    15
100
AcDbSpline
210
0.0
220
0.0
230
1.0
 70
     8
 71
     3
 72
    15
 73
    11
 74
     0
 42
0.000000001
 43
0.00000001
 40
0.0
 40
0.0
 40
0.0
 40
0.0
 40
0.0314806001189908
 40
0.1615846863478447
 40
0.2954623737074524
 40
0.4255691437844558
 40
0.5594409867746111
 40
0.689659871178412
 40
0.8236639218263238
 40
1.0
 40
1.0
 40
1.0
 40
1.0
 10
36.95874701974918
 20
83.89029984729434
 30
0.0
 10
36.96615673027748
 20
83.89419141966896
 30
0.0
 10
37.00418954245763
 20
83.91416621364289
 30
0.0
 10
37.10928104803778
 20
83.9506334812677
 30
0.0
 10
37.26916152877194
 20
83.99980570542198
 30
0.0
 10
37.45986375603989
 20
84.05004598449672
 30
0.0
 10
37.66872999407683
 20
84.09958398987422
 30
0.0
 10
37.89431780626509
 20
84.14886533337058
 30
0.0
 10
38.15341505700412
 20
84.20313549824577
 30
0.0
 10
38.33454686995819
 20
84.24183531618917
 30
0.0
 10
38.43746644291218
 20
84.26382465462274
 30
0.0
  0
SPLINE
  5
22C
330
1F
100
AcDbEntity
  8
0
  6
Continuous
 62
     7
370
    15
100
AcDbSpline
210
0.0
220
0.0
230
1.0
 70
     8
 71
     3
 72
    15
 73
    11
 74
     0
 42
0.000000001
 43
0.00000001
 40
0.0
 40
0.0
 40
0.0
 40
0.0
 40
0.1226507948745999
 40
0.2488565211029847
 40
0.3715387935939617
 40
0.4977304583604741
 40
0.6213191717745487
 40
0.7484069970977623
 40
0.8735195933468388
 40
1.0
 40
1.0
 40
1.0
 40
1.0
 10
38.43746644291262
 20
84.26382465462285
 30
0.0
 10
38.51218290077352
 20
84.27921634904123
 30
0.0
 10
38.66378141092923
 20
84.31044585334861
 30
0.0
 10
38.87456512188692
 20
84.35705902215965
 30
0.0
 10
39.06786959210269
 20
84.40299696653402
 30
0.0
 10
39.23429298802403
 20
84.44818440023128
 30
0.0
 10
39.37232289655431
 20
84.49377292174353
 30
0.0
 10
39.47479804126404
 20
84.53950788180778
 30
0.0
 10
39.54344254926886
 20
84.58599461263786
 30
0.0
 10
39.55538895345612
 20
84.61632524571574
 30
0.0
 10
39.56139462945752
 20
84.63157301000763
 30
0.0
  0
SPLINE
  5
22D
330
1F
100
AcDbEntity
  8
0
  6
Continuous
 62
     7
370
    15
100
AcDbSpline
210
0.0
220
0.0
230
1.0
 70
    24
 71
     3
 72
     8
 73
     4
 74
     0
 42
0.000000001
 43
0.00000001
 40
0.0
 40
0.0
 40
0.0
 40
0.0
 40
1.0
 40
1.0
 40
1.0
 40
1.0
 10
36.59525794560403
 20
74.91518292544961
 30
0.0
 10
36.61965555703797
 20
74.90536443970339
 30
0.0
 10
36.653127619844
 20
74.89189406484935
 30
0.0
 10
36.6941582988444
 20
74.87538182806686
 30
0.0
  0
SPLINE
  5
22E
330
1F
100
AcDbEntity
  8
0
  6
Continuous
 62
     7
370
    15
100
AcDbSpline
210
0.0
220
0.0
230
1.0
 70
     8
 71
     3
 72
     8
 73
     4
 74
     0
 42
0.000000001
 43
0.00000001
 40
0.0
 40
0.0
 40
0.0
 40
0.0
 40
0.0003787590343065
 40
0.0003787590343065
 40
0.0003787590343065
 40
0.0003787590343065
 10
36.24826928398442
 20
74.77203150131143
 30
0.0
 10
36.36386385834501
 20
74.82009342154825
 30
0.0
 10
36.47949185848851
 20
74.8678982501767
 30
0.0
 10
36.59525794560402
 20
74.91518292544963
 30
0.0
  0
SPLINE
  5
22F
330
1F
100
AcDbEntity
  8
0
  6
Continuous
 62
     7
370
    15
100
AcDbSpline
210
0.0
220
0.0
230
1.0
 70
     8
 71
     3
 72
    11
 73
     7
 74
     0
 42
0.000000001
 43
0.00000001
 40
0.0
 40
0.0
 40
0.0
 40
0.0
 40
0.1516792329994018
 40
0.4199475408352709
 40
0.6964043169211466
 40
1.0
 40
1.0
 40
1.0
 40
1.0
 10
39.02357015643194
 20
64.06344456802937
 30
0.0
 10
39.00116196185829
 20
64.05175842529309
 30
0.0
 10
38.93912139097938
 20
64.01940352207461
 30
0.0
 10
38.80852072395342
 20
63.96440707725488
 30
0.0
 10
38.63532100244753
 20
63.89612310347782
 30
0.0
 10
38.50434361756902
 20
63.84888324447659
 30
0.0
 10
38.43579090651365
 20
63.82415820963633
 30
0.0
  0
SPLINE
  5
230
330
1F
100
AcDbEntity
  8
0
  6
Continuous
 62
     7
370
    15
100
AcDbSpline
210
0.0
220
0.0
230
1.0
 70
     8
 71
     3
 72
     9
 73
     5
 74
     0
 42
0.000000001
 43
0.00000001
 40
0.0
 40
0.0
 40
0.0
 40
0.0
 40
0.5020140384309896
 40
0.9999999999999999
 40
0.9999999999999999
 40
0.9999999999999999
 40
0.9999999999999999
 10
38.12228389600105
 20
61.49843544670511
 30
0.0
 10
38.17511825106897
 20
61.53964307086529
 30
0.0
 10
38.28036302715741
 20
61.62172767608664
 30
0.0
 10
38.38480162723921
 20
61.69841652678183
 30
0.0
 10
38.43681058392588
 20
61.7366064978369
 30
0.0
  0
SPLINE
  5
231
330
1F
100
AcDbEntity
  8
0
  6
Continuous
 62
     7
370
    15
100
AcDbSpline
210
0.0
220
0.0
230
1.0
 70
     8
 71
     3
 72
    15
 73
    11
 74
     0
 42
0.000000001
 43
0.00000001
 40
0.0
 40
0.0
 40
0.0
 40
0.0
 40
0.0153315990819474
 40
0.1322620439028884
 40
0.2773901543042468
 40
0.4258456598195281
 40
0.577257408732154
 40
0.7319594705188645
 40
0.8898161810700083
 40
1.0
 40
1.0
 40
1.0
 40
1.0
 10
37.32696048096459
 20
63.09125129999874
 30
0.0
 10
37.32248838368663
 20
63.09534250618633
 30
0.0
 10
37.28390866846227
 20
63.1306363649356
 30
0.0
 10
37.2635200613426
 20
63.20223518822723
 30
0.0
 10
37.29646340322556
 20
63.30669054255732
 30
0.0
 10
37.42623992704372
 20
63.41703799612341
 30
0.0
 10
37.63408523125531
 20
63.52783002703596
 30
0.0
 10
37.90880769867697
 20
63.63830227258303
 30
0.0
 10
38.18732687599877
 20
63.73713120412017
 30
0.0
 10
38.36259585643288
 20
63.7985185997153
 30
0.0
 10
38.43464393677945
 20
63.82375320768273
 30
0.0
  0
SPLINE
  5
232
330
1F
100
AcDbEntity
  8
0
  6
Continuous
 62
     7
370
    15
100
AcDbSpline
210
0.0
220
0.0
230
1.0
 70
     8
 71
     3
 72
    11
 73
     7
 74
     0
 42
0.000000001
 43
0.00000001
 40
0.0
 40
0.0
 40
0.0
 40
0.0
 40
0.2980699720933104
 40
0.5961122553504848
 40
0.8843142881436089
 40
1.0
 40
1.0
 40
1.0
 40
1.0
 10
38.12228274287154
 20
61.49843448546144
 30
0.0
 10
38.06682276423817
 20
61.45007654116876
 30
0.0
 10
37.95590795885656
 20
61.35336514473394
 30
0.0
 10
37.85770855512671
 20
61.20141932719217
 30
0.0
 10
37.82809917305479
 20
61.07490672723618
 30
0.0
 10
37.85475441047942
 20
60.99676246461917
 30
0.0
 10
37.8623892797148
 20
60.97437957539289
 30
0.0
  0
LINE
  5
233
330
1F
100
AcDbEntity
  8
0
  6
Continuous
 62
     7
370
    15
100
AcDbLine
 10
38.1878697274
 20
59.8893164003
 30
0.0
 11
39.1065811211
 21
60.2698591195
 31
0.0
  0
SPLINE
  5
234
330
1F
100
AcDbEntity
  8
0
  6
Continuous
 62
     7
370
    15
100
AcDbSpline
210
0.0
220
0.0
230
1.0
 70
     8
 71
     3
 72
    10
 73
     6
 74
     0
 42
0.000000001
 43
0.00000001
 40
0.0
 40
0.0
 40
0.0
 40
0.0
 40
0.3682038576917119
 40
0.7439104068636602
 40
1.0
 40
1.0
 40
1.0
 40
1.0
 10
39.10658112106335
 20
60.2698591194661
 30
0.0
 10
39.10676198497969
 20
60.3026903694612
 30
0.0
 10
39.10712739817889
 20
60.36902185413062
 30
0.0
 10
39.02679088120102
 20
60.45550257318558
 30
0.0
 10
38.93323200637072
 20
60.50888714322024
 30
0.0
 10
38.89530924523758
 20
60.53052582048405
 30
0.0
  0
SPLINE
  5
235
330
1F
100
AcDbEntity
  8
0
  6
Continuous
 62
     7
370
    15
100
AcDbSpline
210
0.0
220
0.0
230
1.0
 70
     8
 71
     3
 72
    26
 73
    22
 74
     0
 42
0.000000001
 43
0.00000001
 40
0.0
 40
0.0
 40
0.0
 40
0.0
 40
0.042132949133801
 40
0.0964571625842033
 40
0.1515682446850186
 40
0.2076620506412684
 40
0.2565937934856121
 40
0.3063174271550373
 40
0.3567592287464634
 40
0.4077658701618634
 40
0.4594403785144699
 40
0.5110910829645205
 40
0.5634816198127753
 40
0.6166244795995661
 40
0.6703516945192705
 40
0.725744522241182
 40
0.7820455170658651
 40
0.8391270717982443
 40
0.8970320107288485
 40
0.955603599974087
 40
1.0
 40
1.0
 40
1.0
 40
1.0
 10
37.16564738137433
 20
61.16837640783154
 30
0.0
 10
37.11828681635534
 20
61.19250497274853
 30
0.0
 10
37.00986179949715
 20
61.24774375752315
 30
0.0
 10
36.92406042795827
 20
61.3323343572242
 30
0.0
 10
36.90126120630657
 20
61.42382607494587
 30
0.0
 10
36.96464584587994
 20
61.51071602907053
 30
0.0
 10
37.10213286529691
 20
61.59292913328771
 30
0.0
 10
37.28979618486927
 20
61.67093058661424
 30
0.0
 10
37.52432370310213
 20
61.74882794728837
 30
0.0
 10
37.79641011424284
 20
61.82695356198641
 30
0.0
 10
38.0944040400018
 20
61.90475677022428
 30
0.0
 10
38.40400066638693
 20
61.98168399310696
 30
0.0
 10
38.70765821822899
 20
62.05838254470711
 30
0.0
 10
38.99334230591612
 20
62.13488601293376
 30
0.0
 10
39.24991453500992
 20
62.21202157715052
 30
0.0
 10
39.46315930403131
 20
62.29002588336134
 30
0.0
 10
39.6145273490333
 20
62.36807996874843
 30
0.0
 10
39.691184022115
 20
62.44637039115199
 30
0.0
 10
39.69203319455561
 20
62.52443407146178
 30
0.0
 10
39.6336001655528
 20
62.59608250866771
 30
0.0
 10
39.54264874590422
 20
62.6414197704903
 30
0.0
 10
39.50343349426898
 20
62.66096770209703
 30
0.0
  0
SPLINE
  5
236
330
1F
100
AcDbEntity
  8
0
  6
Continuous
 62
     7
370
    15
100
AcDbSpline
210
0.0
220
0.0
230
1.0
 70
     8
 71
     3
 72
    27
 73
    23
 74
     0
 42
0.000000001
 43
0.00000001
 40
0.0
 40
0.0
 40
0.0
 40
0.0
 40
0.0060596060084837
 40
0.0550106351394264
 40
0.1045749995800092
 40
0.1587636113059671
 40
0.2134811932084816
 40
0.2686414944152228
 40
0.3242040039124897
 40
0.3802428517254621
 40
0.436776826160452
 40
0.4937451440660244
 40
0.543919518896094
 40
0.5945026322879644
 40
0.6454477218340299
 40
0.6967796349989749
 40
0.7484205428633409
 40
0.8003521976591068
 40
0.8527004417289135
 40
0.9054105725671303
 40
0.9620437547153117
 40
1.0
 40
1.0
 40
1.0
 40
1.0
 10
36.50472169423718
 20
63.43315998894505
 30
0.0
 10
36.49681849903177
 20
63.43619359511107
 30
0.0
 10
36.42507129512578
 20
63.46373343874475
 30
0.0
 10
36.35343943181252
 20
63.51572955334957
 30
0.0
 10
36.30821728821087
 20
63.59064491652408
 30
0.0
 10
36.36450816495505
 20
63.66766812126749
 30
0.0
 10
36.51179048702119
 20
63.74660353584838
 30
0.0
 10
36.74336301268408
 20
63.82557765200826
 30
0.0
 10
37.05079853504746
 20
63.9046492628247
 30
0.0
 10
37.4240260864772
 20
63.98366797064695
 30
0.0
 10
37.83988206532712
 20
64.06263026640784
 30
0.0
 10
38.25952135866785
 20
64.13827449536004
 30
0.0
 10
38.66237175511276
 20
64.21076452913796
 30
0.0
 10
39.03283196575899
 20
64.27984050780677
 30
0.0
 10
39.37249420808993
 20
64.34900777092119
 30
0.0
 10
39.67003007545892
 20
64.41807522013417
 30
0.0
 10
39.91463141623857
 20
64.48718785631118
 30
0.0
 10
40.09516721437686
 20
64.5564287113153
 30
0.0
 10
40.1991756037689
 20
64.62550242185465
 30
0.0
 10
40.21943433913152
 20
64.69620023870242
 30
0.0
 10
40.17371183759123
 20
64.7601420711886
 30
0.0
 10
40.08324604317102
 20
64.80091775938877
 30
0.0
 10
40.04694450317783
 20
64.81727996883419
 30
0.0
  0
SPLINE
  5
237
330
1F
100
AcDbEntity
  8
0
  6
Continuous
 62
     7
370
    15
100
AcDbSpline
210
0.0
220
0.0
230
1.0
 70
     8
 71
     3
 72
    13
 73
     9
 74
     0
 42
0.000000001
 43
0.00000001
 40
0.0
 40
0.0
 40
0.0
 40
0.0
 40
0.0715519712432638
 40
0.2558509112986305
 40
0.4407517992785895
 40
0.627144231471179
 40
0.8139132265082701
 40
1.0
 40
1.0
 40
1.0
 40
1.0
 10
36.03127745094282
 20
65.65365259428515
 30
0.0
 10
36.01105945396439
 20
65.66165312765825
 30
0.0
 10
35.93876524792524
 20
65.69026091747622
 30
0.0
 10
35.88228015945126
 20
65.73917423084441
 30
0.0
 10
35.86751513527859
 20
65.80072371808488
 30
0.0
 10
35.94325468808682
 20
65.86244387321672
 30
0.0
 10
36.08089679581242
 20
65.92403267357817
 30
0.0
 10
36.2259779181864
 20
65.96536449176607
 30
0.0
 10
36.29838575047945
 20
65.98599258803901
 30
0.0
  0
SPLINE
  5
238
330
1F
100
AcDbEntity
  8
0
  6
Continuous
 62
     7
370
    15
100
AcDbSpline
210
0.0
220
0.0
230
1.0
 70
     8
 71
     3
 72
     8
 73
     4
 74
     0
 42
0.000000001
 43
0.00000001
 40
0.0
 40
0.0
 40
0.0
 40
0.0
 40
1.0
 40
1.0
 40
1.0
 40
1.0
 10
36.68602851615496
 20
65.8956513530964
 30
0.0
 10
36.55603949461827
 20
65.92234830121484
 30
0.0
 10
36.42692150519962
 20
65.95288582347
 30
0.0
 10
36.29838575047945
 20
65.98599258803901
 30
0.0
  0
SPLINE
  5
239
330
1F
100
AcDbEntity
  8
0
  6
Continuous
 62
     7
370
    15
100
AcDbSpline
210
0.0
220
0.0
230
1.0
 70
    24
 71
     3
 72
     8
 73
     4
 74
     0
 42
0.000000001
 43
0.00000001
 40
0.0
 40
0.0
 40
0.0
 40
0.0
 40
1.0
 40
1.0
 40
1.0
 40
1.0
 10
36.68602851615496
 20
65.89565135309641
 30
0.0
 10
36.7113562903912
 20
65.9585874524373
 30
0.0
 10
36.73748325677127
 20
66.02350943635241
 30
0.0
 10
36.76392140271341
 20
66.08920465946532
 30
0.0
  0
SPLINE
  5
23A
330
1F
100
AcDbEntity
  8
0
  6
Continuous
 62
     7
370
    15
100
AcDbSpline
210
0.0
220
0.0
230
1.0
 70
     8
 71
     3
 72
    23
 73
    19
 74
     0
 42
0.000000001
 43
0.00000001
 40
0.0
 40
0.0
 40
0.0
 40
0.0
 40
0.0444881088746442
 40
0.0889551552374616
 40
0.157128631036389
 40
0.2253434199513872
 40
0.2935146587256762
 40
0.3617441868810879
 40
0.430001375717801
 40
0.4982016608127208
 40
0.5663883795689936
 40
0.6345828759961817
 40
0.7027778489263504
 40
0.7710331914818676
 40
0.8392676390158437
 40
0.9074401574908743
 40
0.9756551823330153
 40
1.0
 40
1.0
 40
1.0
 40
1.0
 10
36.76392139936586
 20
66.08920466152034
 30
0.0
 10
36.83431872867761
 20
66.10254576318881
 30
0.0
 10
36.97508005829209
 20
66.12922165029615
 30
0.0
 10
37.2467531049067
 20
66.17634981205195
 30
0.0
 10
37.57947412960461
 20
66.23074064188322
 30
0.0
 10
37.97532325324788
 20
66.29212501540339
 30
0.0
 10
38.37651421449429
 20
66.35364387193748
 30
0.0
 10
38.77049142884174
 20
66.41507566081084
 30
0.0
 10
39.14622986554188
 20
66.47648255127858
 30
0.0
 10
39.49277764683597
 20
66.53796147011055
 30
0.0
 10
39.79861285519007
 20
66.59942313404183
 30
0.0
 10
40.05064252096109
 20
66.66086542682157
 30
0.0
 10
40.24361292543987
 20
66.72235580603028
 30
0.0
 10
40.37397435148527
 20
66.78376343021148
 30
0.0
 10
40.44001304079377
 20
66.84518959381087
 30
0.0
 10
40.4328156905665
 20
66.90671012548493
 30
0.0
 10
40.38279317123234
 20
66.95494363281082
 30
0.0
 10
40.31312843660636
 20
66.98275917560537
 30
0.0
 10
40.29480542290719
 20
66.99007513789834
 30
0.0
  0
SPLINE
  5
23B
330
1F
100
AcDbEntity
  8
0
  6
Continuous
 62
     7
370
    15
100
AcDbSpline
210
0.0
220
0.0
230
1.0
 70
     8
 71
     3
 72
    12
 73
     8
 74
     0
 42
0.000000001
 43
0.00000001
 40
0.0
 40
0.0
 40
0.0
 40
0.0
 40
0.1458212728399641
 40
0.3593171810169151
 40
0.5728008894522929
 40
0.7863085793338469
 40
1.0
 40
1.0
 40
1.0
 40
1.0
 10
36.02215807280002
 20
67.84864121179918
 30
0.0
 10
35.99125012933141
 20
67.8623976668824
 30
0.0
 10
35.91509008147362
 20
67.89629485187487
 30
0.0
 10
35.86937973476412
 20
67.95032979569235
 30
0.0
 10
35.88275435792561
 20
68.01075345327239
 30
0.0
 10
35.9623306246344
 20
68.07120452406606
 30
0.0
 10
36.06743927670063
 20
68.1114590577584
 30
0.0
 10
36.12001620542021
 20
68.13159498098618
 30
0.0
  0
SPLINE
  5
23C
330
1F
100
AcDbEntity
  8
0
  6
Continuous
 62
     7
370
    15
100
AcDbSpline
210
0.0
220
0.0
230
1.0
 70
     8
 71
     3
 72
    10
 73
     6
 74
     0
 42
0.000000001
 43
0.00000001
 40
0.0
 40
0.0
 40
0.0
 40
0.0
 40
0.5
 40
0.5
 40
1.0
 40
1.0
 40
1.0
 40
1.0
 10
37.24382894343648
 20
67.87474576907611
 30
0.0
 10
37.05229736950428
 20
67.8946047697153
 30
0.0
 10
36.86359518764856
 20
67.93221301257937
 30
0.0
 10
36.48930380048638
 20
68.02235068381607
 30
0.0
 10
36.30408979849602
 20
68.07516057032696
 30
0.0
 10
36.12001620542021
 20
68.13159498098618
 30
0.0
  0
SPLINE
  5
23D
330
1F
100
AcDbEntity
  8
0
  6
Continuous
 62
     7
370
    15
100
AcDbSpline
210
0.0
220
0.0
230
1.0
 70
     8
 71
     3
 72
    12
 73
     8
 74
     0
 42
0.000000001
 43
0.00000001
 40
0.0
 40
0.0
 40
0.0
 40
0.0
 40
0.1963426899071279
 40
0.4036750345655581
 40
0.6170248431377975
 40
0.8243039599785682
 40
0.9999999999999999
 40
0.9999999999999999
 40
0.9999999999999999
 40
0.9999999999999999
 10
37.24382894343648
 20
67.87474576907611
 30
0.0
 10
37.1922363592204
 20
67.85591747193997
 30
0.0
 10
37.08616346072541
 20
67.81720702389204
 30
0.0
 10
36.96085178775696
 20
67.75818028804346
 30
0.0
 10
36.86870519183533
 20
67.6975238208049
 30
0.0
 10
36.81447066586031
 20
67.63923128827395
 30
0.0
 10
36.81115293200121
 20
67.60188244968857
 30
0.0
 10
36.80963086799667
 20
67.58474806663195
 30
0.0
  0
SPLINE
  5
23E
330
1F
100
AcDbEntity
  8
0
  6
Continuous
 62
     7
370
    15
100
AcDbSpline
210
0.0
220
0.0
230
1.0
 70
     8
 71
     3
 72
    22
 73
    18
 74
     0
 42
0.000000001
 43
0.00000001
 40
0.0
 40
0.0
 40
0.0
 40
0.0
 40
0.0614036679076268
 40
0.128172740577928
 40
0.1968845528604279
 40
0.2635401343159017
 40
0.3321274301050019
 40
0.3988147660084564
 40
0.4674309922753437
 40
0.5341847490946594
 40
0.6028812356730195
 40
0.6695204590506917
 40
0.7380878338017822
 40
0.8048096408997071
 40
0.8734627989632858
 40
0.940249440711339
 40
1.0
 40
1.0
 40
1.0
 40
1.0
 10
39.29450430778998
 20
66.28709744440162
 30
0.0
 10
39.25428839458837
 20
66.2684109752936
 30
0.0
 10
39.17034253295601
 20
66.22940522793495
 30
0.0
 10
39.00202006212461
 20
66.17048500390744
 30
0.0
 10
38.80658911824118
 20
66.11040517023461
 30
0.0
 10
38.58888734094964
 20
66.049534772128
 30
0.0
 10
38.36060107695918
 20
65.98859948518084
 30
0.0
 10
38.12410509665086
 20
65.92649398019316
 30
0.0
 10
37.89049771353203
 20
65.86538361262944
 30
0.0
 10
37.66253206113427
 20
65.80464610635104
 30
0.0
 10
37.45160748546276
 20
65.74452333120917
 30
0.0
 10
37.26046033305571
 20
65.68337314651784
 30
0.0
 10
37.09827056231889
 20
65.62211059929764
 30
0.0
 10
36.96641557882816
 20
65.56001471362153
 30
0.0
 10
36.87256019383407
 20
65.49934763523385
 30
0.0
 10
36.81561217040834
 20
65.4388825527453
 30
0.0
 10
36.81111434470678
 20
65.40233437412869
 30
0.0
 10
36.80899048232443
 20
65.38507641286958
 30
0.0
  0
SPLINE
  5
23F
330
1F
100
AcDbEntity
  8
0
  6
Continuous
 62
     7
370
    15
100
AcDbSpline
210
0.0
220
0.0
230
1.0
 70
     8
 71
     3
 72
     8
 73
     4
 74
     0
 42
0.000000001
 43
0.00000001
 40
0.0
 40
0.0
 40
0.0
 40
0.0
 40
1.0
 40
1.0
 40
1.0
 40
1.0
 10
36.76392139870111
 20
66.0892046593541
 30
0.0
 10
36.78444678724769
 20
66.14020747865158
 30
0.0
 10
36.80273626612738
 20
66.18565435444992
 30
0.0
 10
36.81585815778462
 20
66.21826048356249
 30
0.0
  0
SPLINE
  5
240
330
1F
100
AcDbEntity
  8
0
  6
Continuous
 62
     7
370
    15
100
AcDbSpline
210
0.0
220
0.0
230
1.0
 70
     8
 71
     3
 72
     8
 73
     4
 74
     0
 42
0.000000001
 43
0.00000001
 40
0.0
 40
0.0
 40
0.0
 40
0.0
 40
0.0005728154708087
 40
0.0005728154708087
 40
0.0005728154708087
 40
0.0005728154708087
 10
36.29838575047949
 20
65.98599258803903
 30
0.0
 10
36.47100006993058
 20
66.0626897742005
 30
0.0
 10
36.64355036085849
 20
66.14001070481915
 30
0.0
 10
36.81585815778307
 20
66.21826048356078
 30
0.0
  0
LINE
  5
241
330
1F
100
AcDbEntity
  8
0
  6
Continuous
 62
     7
370
    15
100
AcDbLine
 10
39.1065811211
 20
60.2698591195
 30
0.0
 11
38.3598666506
 21
60.5791583804
 31
0.0
  0
SPLINE
  5
242
330
1F
100
AcDbEntity
  8
0
  6
Continuous
 62
     7
370
    15
100
AcDbSpline
210
0.0
220
0.0
230
1.0
 70
     8
 71
     3
 72
    14
 73
    10
 74
     0
 42
0.000000001
 43
0.00000001
 40
0.0
 40
0.0
 40
0.0
 40
0.0
 40
0.0245213931731531
 40
0.1887743484601646
 40
0.3579487885388552
 40
0.52810419601777
 40
0.7062976226740958
 40
0.8910636437060365
 40
1.0
 40
1.0
 40
1.0
 40
1.0
 10
37.874540701405
 20
62.05277589730463
 30
0.0
 10
37.88196117776294
 20
62.05959226931934
 30
0.0
 10
37.9390866265432
 20
62.11206710942539
 30
0.0
 10
38.10067345865188
 20
62.20907158618951
 30
0.0
 10
38.33296290483516
 20
62.33767297589482
 30
0.0
 10
38.56782059323352
 20
62.46411131692838
 30
0.0
 10
38.76017151258984
 20
62.59353160585813
 30
0.0
 10
38.88253332546417
 20
62.70275860810841
 30
0.0
 10
38.89526169030655
 20
62.76699464212812
 30
0.0
 10
38.89998273376603
 20
62.79082025618204
 30
0.0
  0
SPLINE
  5
243
330
1F
100
AcDbEntity
  8
0
  6
Continuous
 62
     7
370
    15
100
AcDbSpline
210
0.0
220
0.0
230
1.0
 70
     8
 71
     3
 72
    22
 73
    18
 74
     0
 42
0.000000001
 43
0.00000001
 40
0.0
 40
0.0
 40
0.0
 40
0.0
 40
0.0494583334991794
 40
0.1147685482220662
 40
0.1819225915467428
 40
0.24820894728374
 40
0.3163144523049284
 40
0.3845030837530721
 40
0.4545854522477862
 40
0.5242333365307951
 40
0.5958490725537923
 40
0.6665209051837311
 40
0.7391311148202971
 40
0.8118316530419905
 40
0.8865685270246212
 40
0.9604922011202666
 40
1.0
 40
1.0
 40
1.0
 40
1.0
 10
37.32506484518491
 20
64.14156166460884
 30
0.0
 10
37.3534919767887
 20
64.15667981230277
 30
0.0
 10
37.41945741463223
 20
64.19176162238175
 30
0.0
 10
37.55361288732411
 20
64.24647673465618
 30
0.0
 10
37.71748956733263
 20
64.30482627897806
 30
0.0
 10
37.90005468675864
 20
64.36325602631237
 30
0.0
 10
38.09335320242163
 20
64.42176099292682
 30
0.0
 10
38.29472487448511
 20
64.48125293690656
 30
0.0
 10
38.49625433329995
 20
64.5407728008012
 30
0.0
 10
38.69385499870614
 20
64.59973531801297
 30
0.0
 10
38.87875027759043
 20
64.65767062273078
 30
0.0
 10
39.04712492065983
 20
64.71596423961167
 30
0.0
 10
39.19223239357755
 20
64.77449545463091
 30
0.0
 10
39.3117419516692
 20
64.83403856316308
 30
0.0
 10
39.39746405108634
 20
64.89318836266513
 30
0.0
 10
39.44617269246028
 20
64.94213103396929
 30
0.0
 10
39.45098377491548
 20
64.97118477989389
 30
0.0
 10
39.45265945868339
 20
64.98130410145943
 30
0.0
  0
SPLINE
  5
244
330
1F
100
AcDbEntity
  8
0
  6
Continuous
 62
     7
370
    15
100
AcDbSpline
210
0.0
220
0.0
230
1.0
 70
     8
 71
     3
 72
    23
 73
    19
 74
     0
 42
0.000000001
 43
0.00000001
 40
0.0
 40
0.0
 40
0.0
 40
0.0
 40
0.010810311317386
 40
0.0771682940617652
 40
0.1454480279913144
 40
0.2118521927215433
 40
0.2801754750973767
 40
0.3466941663713233
 40
0.41514530130799
 40
0.4815974702187445
 40
0.5499791444425239
 40
0.6163994876856902
 40
0.6847389442220555
 40
0.7512714049038605
 40
0.8197395668860689
 40
0.8861610389632378
 40
0.9545077427678398
 40
1.0
 40
1.0
 40
1.0
 40
1.0
 10
37.01283676617189
 20
66.34981158311939
 30
0.0
 10
37.01869749761457
 20
66.35305896152835
 30
0.0
 10
37.06053372546299
 20
66.37624003787609
 30
0.0
 10
37.17326212289112
 20
66.41954065357018
 30
0.0
 10
37.34618972158452
 20
66.47979385994168
 30
0.0
 10
37.54863236460098
 20
66.54124962222379
 30
0.0
 10
37.76666261353168
 20
66.6027860742726
 30
0.0
 10
37.99902348327386
 20
66.66447759296486
 30
0.0
 10
38.2343042034894
 20
66.72465005394987
 30
0.0
 10
38.46929784678957
 20
66.78533303669141
 30
0.0
 10
38.69249114929595
 20
66.84591561634493
 30
0.0
 10
38.90120263145471
 20
66.90774098043329
 30
0.0
 10
39.08568262211696
 20
66.96929671180881
 30
0.0
 10
39.24377351744236
 20
67.03041025209266
 30
0.0
 10
39.36803971286364
 20
67.09049138042964
 30
0.0
 10
39.45487690364292
 20
67.15134124576309
 30
0.0
 10
39.50192877787546
 20
67.20590427665348
 30
0.0
 10
39.50218795030115
 20
67.24064312443744
 30
0.0
 10
39.50229152063024
 20
67.25452544192297
 30
0.0
  0
SPLINE
  5
245
330
1F
100
AcDbEntity
  8
0
  6
Continuous
 62
     7
370
    15
100
AcDbSpline
210
0.0
220
0.0
230
1.0
 70
     8
 71
     3
 72
     9
 73
     5
 74
     0
 42
0.000000001
 43
0.00000001
 40
0.0
 40
0.0
 40
0.0
 40
0.0
 40
0.0598682653173162
 40
1.0
 40
1.0
 40
1.0
 40
1.0
 10
37.01625817970747
 20
68.55120064022869
 30
0.0
 10
37.01879672515432
 20
68.55262629328824
 30
0.0
 10
37.06119891324835
 20
68.57643946128309
 30
0.0
 10
37.12466056993901
 20
68.60054480142148
 30
0.0
 10
37.18432288732944
 20
68.62320699666091
 30
0.0
  0
SPLINE
  5
246
330
1F
100
AcDbEntity
  8
0
  6
Continuous
 62
     7
370
    15
100
AcDbSpline
210
0.0
220
0.0
230
1.0
 70
     8
 71
     3
 72
    14
 73
    10
 74
     0
 42
0.000000001
 43
0.00000001
 40
0.0
 40
0.0
 40
0.0
 40
0.0
 40
0.0003184490031639
 40
0.0003184490031639
 40
0.0003184490031639
 40
0.0006369000357603
 40
0.0006369000357603
 40
0.0006369000357603
 40
0.0011750277917235
 40
0.0011750277917235
 40
0.0011750277917235
 40
0.0011750277917235
 10
36.12001620542022
 20
68.13159498098618
 30
0.0
 10
36.21670817765182
 20
68.17457149095314
 30
0.0
 10
36.3133197502485
 20
68.21780968647124
 30
0.0
 10
36.40980181274821
 20
68.26140107098186
 30
0.0
 10
36.50628422998052
 20
68.30499261576357
 30
0.0
 10
36.60263975000956
 20
68.3489388192651
 30
0.0
 10
36.69880299656729
 20
68.39335903091421
 30
0.0
 10
36.8612939801401
 20
68.46841768523122
 30
0.0
 10
37.02322874865165
 20
68.54488960070084
 30
0.0
 10
37.18432288732945
 20
68.62320699666091
 30
0.0
  0
SPLINE
  5
247
330
1F
100
AcDbEntity
  8
0
  6
Continuous
 62
     7
370
    15
100
AcDbSpline
210
0.0
220
0.0
230
1.0
 70
    24
 71
     3
 72
    14
 73
    10
 74
     0
 42
0.000000001
 43
0.00000001
 40
0.0000302977358822
 40
0.0000302977358822
 40
0.0000302977358822
 40
0.0000302977358822
 40
0.0005362716728792
 40
0.0005362716728792
 40
0.0005362716728792
 40
0.0008672576467851
 40
0.0008672576467851
 40
0.0008672576467851
 40
0.001198270341566
 40
0.001198270341566
 40
0.001198270341566
 40
0.001198270341566
 10
37.51782609576519
 20
67.96255603305617
 30
0.0
 10
37.54753340773133
 20
68.0363746923514
 30
0.0
 10
37.57652047377002
 20
68.10840363775792
 30
0.0
 10
37.60498307745527
 20
68.17912936502974
 30
0.0
 10
37.62360296612919
 20
68.22539727441522
 30
0.0
 10
37.64200505535226
 20
68.27112398157476
 30
0.0
 10
37.66024866518392
 20
68.31645688884059
 30
0.0
 10
37.67849382341832
 20
68.36179364367817
 30
0.0
 10
37.69658085801598
 20
68.40673748262759
 30
0.0
 10
37.7145536253436
 20
68.45139738283875
 30
0.0
  0
SPLINE
  5
248
330
1F
100
AcDbEntity
  8
0
  6
Continuous
 62
     7
370
    15
100
AcDbSpline
210
0.0
220
0.0
230
1.0
 70
     8
 71
     3
 72
    20
 73
    16
 74
     0
 42
0.000000001
 43
0.00000001
 40
0.0
 40
0.0
 40
0.0
 40
0.0
 40
0.0162295936362034
 40
0.1042555220701471
 40
0.192198020952411
 40
0.2801894875631847
 40
0.3681374992343344
 40
0.4561736169518744
 40
0.54421018938745
 40
0.6321585699370014
 40
0.7201499445402764
 40
0.8080922784298944
 40
0.8961176590682034
 40
0.9841626735388639
 40
1.0
 40
1.0
 40
1.0
 40
1.0
 10
37.71455361671206
 20
68.45139738378955
 30
0.0
 10
37.74028389435715
 20
68.4554186530814
 30
0.0
 10
37.90556982751289
 20
68.48125044769095
 30
0.0
 10
38.2168398018826
 20
68.52898190224158
 30
0.0
 10
38.64229728707083
 20
68.59458807403142
 30
0.0
 10
39.05058497322933
 20
68.66008116274675
 30
0.0
 10
39.42583532943099
 20
68.72570049143476
 30
0.0
 10
39.75734462371464
 20
68.79120703346062
 30
0.0
 10
40.03504746051515
 20
68.85671279775322
 30
0.0
 10
40.24923375509243
 20
68.92233288445858
 30
0.0
 10
40.38721763566539
 20
68.98782291470793
 30
0.0
 10
40.44503435547358
 20
69.05344106518154
 30
0.0
 10
40.41785824261973
 20
69.11896242751146
 30
0.0
 10
40.36074951612734
 20
69.1665601795695
 30
0.0
 10
40.29130715670331
 20
69.19236771001398
 30
0.0
 10
40.28072035911514
 20
69.19630218319912
 30
0.0
  0
SPLINE
  5
249
330
1F
100
AcDbEntity
  8
0
  6
Continuous
 62
     7
370
    15
100
AcDbSpline
210
0.0
220
0.0
230
1.0
 70
     8
 71
     3
 72
    11
 73
     7
 74
     0
 42
0.000000001
 43
0.00000001
 40
0.0
 40
0.0
 40
0.0
 40
0.0
 40
0.2429374679086507
 40
0.5282263917763056
 40
0.8133044518188557
 40
0.9999999999999999
 40
0.9999999999999999
 40
0.9999999999999999
 40
0.9999999999999999
 10
36.02976573655947
 20
70.04321151738009
 30
0.0
 10
35.98969369120032
 20
70.06287269516302
 30
0.0
 10
35.90256381323879
 20
70.10562259738171
 30
0.0
 10
35.87034421751946
 20
70.17135890077266
 30
0.0
 10
35.89817823054318
 20
70.23263744991706
 30
0.0
 10
35.97901506846765
 20
70.27082665227236
 30
0.0
 10
36.01100472941192
 20
70.28593931212455
 30
0.0
  0
LINE
  5
24A
330
1F
100
AcDbEntity
  8
0
  6
Continuous
 62
     7
370
    15
100
AcDbLine
 10
36.0350758215
 20
70.2986253016
 30
0.0
 11
36.0563000919
 21
70.309810954
 31
0.0
  0
SPLINE
  5
24B
330
1F
100
AcDbEntity
  8
0
  6
Continuous
 62
     7
370
    15
100
AcDbSpline
210
0.0
220
0.0
230
1.0
 70
     8
 71
     3
 72
    10
 73
     6
 74
     0
 42
0.000000001
 43
0.00000001
 40
0.0
 40
0.0
 40
0.0
 40
0.0
 40
0.5
 40
0.5
 40
1.0
 40
1.0
 40
1.0
 40
1.0
 10
37.1374570815897
 20
70.03613875829278
 30
0.0
 10
36.95309343928952
 20
70.0624604626541
 30
0.0
 10
36.77167333445988
 20
70.10374339158085
 30
0.0
 10
36.41170051233655
 20
70.1987453941949
 30
0.0
 10
36.23349452028484
 20
70.25274074529418
 30
0.0
 10
36.0563000918698
 20
70.30981095403499
 30
0.0
  0
SPLINE
  5
24C
330
1F
100
AcDbEntity
  8
0
  6
Continuous
 62
     7
370
    15
100
AcDbSpline
210
0.0
220
0.0
230
1.0
 70
     8
 71
     3
 72
    12
 73
     8
 74
     0
 42
0.000000001
 43
0.00000001
 40
0.0
 40
0.0
 40
0.0
 40
0.0
 40
0.081466497999559
 40
0.3216346761581859
 40
0.5687560776024061
 40
0.8090563280504772
 40
1.0
 40
1.0
 40
1.0
 40
1.0
 10
37.1374570815897
 20
70.03613875829276
 30
0.0
 10
37.12064645473284
 20
70.02928790004175
 30
0.0
 10
37.05427708010781
 20
70.00224029606855
 30
0.0
 10
36.95540749392065
 20
69.95404987518606
 30
0.0
 10
36.86529187862136
 20
69.89323847065897
 30
0.0
 10
36.81334407674671
 20
69.83725928449174
 30
0.0
 10
36.81123254069971
 20
69.80151142982042
 30
0.0
 10
36.81029760706858
 20
69.78568320296147
 30
0.0
  0
SPLINE
  5
24D
330
1F
100
AcDbEntity
  8
0
  6
Continuous
 62
     7
370
    15
100
AcDbSpline
210
0.0
220
0.0
230
1.0
 70
     8
 71
     3
 72
    16
 73
    12
 74
     0
 42
0.000000001
 43
0.00000001
 40
0.0
 40
0.0
 40
0.0
 40
0.0
 40
0.1170783246012718
 40
0.2309645054963089
 40
0.348144461515158
 40
0.4621938925963482
 40
0.579551362726113
 40
0.6935688421229557
 40
0.8109007044872555
 40
0.904550344779433
 40
1.0
 40
1.0
 40
1.0
 40
1.0
 10
39.30272444256222
 20
68.49033788357792
 30
0.0
 10
39.2573177247969
 20
68.46994659860131
 30
0.0
 10
39.16774230466173
 20
68.42971999758785
 30
0.0
 10
38.99263777441585
 20
68.36850978285683
 30
0.0
 10
38.79645174611204
 20
68.30715756348306
 30
0.0
 10
38.57827946541938
 20
68.24511097977681
 30
0.0
 10
38.34917824389418
 20
68.18473251893944
 30
0.0
 10
38.11193152505383
 20
68.12409403671836
 30
0.0
 10
37.89234355380834
 20
68.0672606540227
 30
0.0
 10
37.69144099541914
 20
68.01316312445715
 30
0.0
 10
37.57606381644705
 20
67.97953177453577
 30
0.0
 10
37.51782609576519
 20
67.96255603305617
 30
0.0
  0
SPLINE
  5
24E
330
1F
100
AcDbEntity
  8
0
  6
Continuous
 62
     7
370
    15
100
AcDbSpline
210
0.0
220
0.0
230
1.0
 70
     8
 71
     3
 72
    14
 73
    10
 74
     0
 42
0.000000001
 43
0.00000001
 40
0.0
 40
0.0
 40
0.0
 40
0.0
 40
0.0003184455582726
 40
0.0003184455582726
 40
0.0003184455582726
 40
0.0006662937573083
 40
0.0006662937573083
 40
0.0006662937573083
 40
0.0009994009108477
 40
0.0009994009108477
 40
0.0009994009108477
 40
0.0009994009108477
 10
37.71455361742823
 20
68.45139738053874
 30
0.0
 10
37.73077225661301
 20
68.49169850914903
 30
0.0
 10
37.74696930414491
 20
68.5319459680485
 30
0.0
 10
37.76313219313975
 20
68.57210856496391
 30
0.0
 10
37.78078742187373
 20
68.61597942464245
 30
0.0
 10
37.79840305226481
 20
68.65975188778525
 30
0.0
 10
37.81594638163548
 20
68.70334469265407
 30
0.0
 10
37.83274623491979
 20
68.74509005982893
 30
0.0
 10
37.849482378068
 20
68.78667711591741
 30
0.0
 10
37.86608708661802
 20
68.82793757477506
 30
0.0
  0
SPLINE
  5
24F
330
1F
100
AcDbEntity
  8
0
  6
Continuous
 62
     7
370
    15
100
AcDbSpline
210
0.0
220
0.0
230
1.0
 70
     8
 71
     3
 72
    17
 73
    13
 74
     0
 42
0.000000001
 43
0.00000001
 40
0.0
 40
0.0
 40
0.0
 40
0.0
 40
0.1492177208267206
 40
0.2453573141947128
 40
0.3442817188666238
 40
0.4404518387712413
 40
0.5394194559487443
 40
0.6354516168788061
 40
0.7342599524757351
 40
0.8304476427390416
 40
0.929427796468507
 40
1.0
 40
1.0
 40
1.0
 40
1.0
 10
37.86608708661802
 20
68.82793757477506
 30
0.0
 10
37.98547136644795
 20
68.8591811875465
 30
0.0
 10
38.18177383035007
 20
68.91055477020724
 30
0.0
 10
38.45742320420111
 20
68.98340450815249
 30
0.0
 10
38.68127158762132
 20
69.04407129208847
 30
0.0
 10
38.8914903256521
 20
69.10472197188658
 30
0.0
 10
39.07747198377606
 20
69.16495391368001
 30
0.0
 10
39.23680670273309
 20
69.22634949517679
 30
0.0
 10
39.36247338227435
 20
69.28781118918174
 30
0.0
 10
39.45135648145052
 20
69.34969050254574
 30
0.0
 10
39.50089137092103
 20
69.40463074050224
 30
0.0
 10
39.5021629986383
 20
69.43966203225901
 30
0.0
 10
39.50269228393712
 20
69.45424298820542
 30
0.0
  0
SPLINE
  5
250
330
1F
100
AcDbEntity
  8
0
  6
Continuous
 62
     7
370
    15
100
AcDbSpline
210
0.0
220
0.0
230
1.0
 70
     8
 71
     3
 72
     9
 73
     5
 74
     0
 42
0.000000001
 43
0.00000001
 40
0.0
 40
0.0
 40
0.0
 40
0.0
 40
0.037295226081551
 40
1.0
 40
1.0
 40
1.0
 40
1.0
 10
37.01384944837957
 20
70.75103976913779
 30
0.0
 10
37.01507865356399
 20
70.75173360878469
 30
0.0
 10
37.04803743444725
 20
70.77033758896657
 30
0.0
 10
37.09615526616285
 20
70.7888110062315
 30
0.0
 10
37.14247853246605
 20
70.80659545322303
 30
0.0
  0
SPLINE
  5
251
330
1F
100
AcDbEntity
  8
0
  6
Continuous
 62
     7
370
    15
100
AcDbSpline
210
0.0
220
0.0
230
1.0
 70
     8
 71
     3
 72
    14
 73
    10
 74
     0
 42
0.000000001
 43
0.00000001
 40
0.0
 40
0.0
 40
0.0
 40
0.0
 40
0.0003184489162913
 40
0.0003184489162913
 40
0.0003184489162913
 40
0.0006368995481923
 40
0.0006368995481923
 40
0.0006368995481923
 40
0.0011945110993323
 40
0.0011945110993323
 40
0.0011945110993323
 40
0.0011945110993323
 10
36.05630009186981
 20
70.30981095403499
 30
0.0
 10
36.15339995217664
 20
70.3526814177452
 30
0.0
 10
36.25040624327975
 20
70.39577866957664
 30
0.0
 10
36.34727612923349
 20
70.43918157788457
 30
0.0
 10
36.44414631672493
 20
70.48258462129756
 30
0.0
 10
36.54088266740371
 20
70.52629453522889
 30
0.0
 10
36.6374276198735
 20
70.57041592229544
 30
0.0
 10
36.80647023525292
 20
70.64766899946927
 30
0.0
 10
36.97492688133321
 20
70.72622919659766
 30
0.0
 10
37.1424785324521
 20
70.80659545321633
 30
0.0
  0
SPLINE
  5
252
330
1F
100
AcDbEntity
  8
0
  6
Continuous
 62
     7
370
    15
100
AcDbSpline
210
0.0
220
0.0
230
1.0
 70
     8
 71
     3
 72
    13
 73
     9
 74
     0
 42
0.000000001
 43
0.00000001
 40
0.0
 40
0.0
 40
0.0
 40
0.0
 40
0.1866216243269129
 40
0.3546799859578256
 40
0.5276293873132851
 40
0.6953902811931076
 40
0.8680095319744723
 40
1.0
 40
1.0
 40
1.0
 40
1.0
 10
38.8594121916989
 20
71.29621634684756
 30
0.0
 10
38.93029987420766
 20
71.3187684536073
 30
0.0
 10
39.06502403775232
 20
71.3616294078923
 30
0.0
 10
39.22929658774359
 20
71.42417528543031
 30
0.0
 10
39.35727938604995
 20
71.48426239687774
 30
0.0
 10
39.44802339051694
 20
71.54522815514581
 30
0.0
 10
39.49981646834616
 20
71.60201284726875
 30
0.0
 10
39.50220535993343
 20
71.63880537928907
 30
0.0
 10
39.50324049078843
 20
71.6547479550553
 30
0.0
  0
SPLINE
  5
253
330
1F
100
AcDbEntity
  8
0
  6
Continuous
 62
     7
370
    15
100
AcDbSpline
210
0.0
220
0.0
230
1.0
 70
     8
 71
     3
 72
     9
 73
     5
 74
     0
 42
0.000000001
 43
0.00000001
 40
0.0
 40
0.0
 40
0.0
 40
0.0
 40
0.4719913805915286
 40
1.0
 40
1.0
 40
1.0
 40
1.0
 10
37.02235374852087
 20
72.9543441173194
 30
0.0
 10
37.06186456465342
 20
72.97262176140725
 30
0.0
 10
37.1455754495493
 20
73.01134629079368
 30
0.0
 10
37.25746986542566
 20
73.04965291312332
 30
0.0
 10
37.31655108147206
 20
73.0698791398938
 30
0.0
  0
SPLINE
  5
254
330
1F
100
AcDbEntity
  8
0
  6
Continuous
 62
     7
370
    15
100
AcDbSpline
210
0.0
220
0.0
230
1.0
 70
     8
 71
     3
 72
    14
 73
    10
 74
     0
 42
0.000000001
 43
0.00000001
 40
0.0
 40
0.0
 40
0.0
 40
0.0
 40
0.0003184486809115
 40
0.0003184486809115
 40
0.0003184486809115
 40
0.000843364840722
 40
0.000843364840722
 40
0.000843364840722
 40
0.0013460189075671
 40
0.0013460189075671
 40
0.0013460189075671
 40
0.0013460189075671
 10
36.09159007747964
 20
72.52151686467285
 30
0.0
 10
36.18859989279513
 20
72.56415742323179
 30
0.0
 10
36.2855054126799
 20
72.60697653440926
 30
0.0
 10
36.38228963316472
 20
72.64999554416333
 30
0.0
 10
36.54182141706728
 20
72.72090482393446
 30
0.0
 10
36.70100421015087
 20
72.79241761856267
 30
0.0
 10
36.85993064939038
 20
72.86425657317352
 30
0.0
 10
37.01211763215276
 20
72.93304911517816
 30
0.0
 10
37.16403321876563
 20
73.00224438986962
 30
0.0
 10
37.31655108147206
 20
73.0698791398938
 30
0.0
  0
SPLINE
  5
255
330
1F
100
AcDbEntity
  8
0
  6
Continuous
 62
     7
370
    15
100
AcDbSpline
210
0.0
220
0.0
230
1.0
 70
     8
 71
     3
 72
    16
 73
    12
 74
     0
 42
0.000000001
 43
0.00000001
 40
0.0
 40
0.0
 40
0.0
 40
0.0
 40
0.1000336734385369
 40
0.1999844362209102
 40
0.2999120291207242
 40
0.4222795071406447
 40
0.5446873652142613
 40
0.6671774535995308
 40
0.7895495628089352
 40
0.9119371703309999
 40
1.0
 40
1.0
 40
1.0
 40
1.0
 10
38.65884200738988
 20
70.797826518876
 30
0.0
 10
38.78322256804581
 20
70.81763795692105
 30
0.0
 10
39.03188059933266
 20
70.85724441274712
 30
0.0
 10
39.37697598526285
 20
70.91671772161752
 30
0.0
 10
39.71158277675521
 20
70.9806091269893
 30
0.0
 10
40.00947965777806
 20
71.04901234546192
 30
0.0
 10
40.24577701753751
 20
71.12186534533518
 30
0.0
 10
40.39613389046242
 20
71.19461566849937
 30
0.0
 10
40.4501282191063
 20
71.26751043174409
 30
0.0
 10
40.41829654637001
 20
71.33350913690892
 30
0.0
 10
40.32508699549693
 20
71.37527732029223
 30
0.0
 10
40.28608352792699
 20
71.3927551857125
 30
0.0
  0
SPLINE
  5
256
330
1F
100
AcDbEntity
  8
0
  6
Continuous
 62
     7
370
    15
100
AcDbSpline
210
0.0
220
0.0
230
1.0
 70
     8
 71
     3
 72
    12
 73
     8
 74
     0
 42
0.000000001
 43
0.00000001
 40
0.0
 40
0.0
 40
0.0
 40
0.0
 40
0.148885604133066
 40
0.4133059420346314
 40
0.6776221399476459
 40
0.9422205948213139
 40
1.0
 40
1.0
 40
1.0
 40
1.0
 10
36.03114685146078
 20
72.24612346528298
 30
0.0
 10
35.99818659921849
 20
72.25979819477799
 30
0.0
 10
35.90668904858545
 20
72.29775919838823
 30
0.0
 10
35.86337122756471
 20
72.35995423156265
 30
0.0
 10
35.90067976017026
 20
72.43284497498539
 30
0.0
 10
35.9998968034621
 20
72.48670223660478
 30
0.0
 10
36.07765378501284
 20
72.51622545323532
 30
0.0
 10
36.09159007747959
 20
72.52151686467283
 30
0.0
  0
SPLINE
  5
257
330
1F
100
AcDbEntity
  8
0
  6
Continuous
 62
     7
370
    15
100
AcDbSpline
210
0.0
220
0.0
230
1.0
 70
     8
 71
     3
 72
    14
 73
    10
 74
     0
 42
0.000000001
 43
0.00000001
 40
0.0
 40
0.0
 40
0.0
 40
0.0
 40
0.000318447095864
 40
0.000318447095864
 40
0.000318447095864
 40
0.0006368964577334
 40
0.0006368964577334
 40
0.0006368964577334
 40
0.0011940945281986
 40
0.0011940945281986
 40
0.0011940945281986
 40
0.0011940945281986
 10
38.65884195454343
 20
70.79782649056816
 30
0.0
 10
38.67610768392859
 20
70.84072949695323
 30
0.0
 10
38.69347538240726
 20
70.88388577976033
 30
0.0
 10
38.71098009738934
 20
70.92738263308703
 30
0.0
 10
38.72848488446584
 20
70.97087966555866
 30
0.0
 10
38.74612721108394
 20
71.0147184652212
 30
0.0
 10
38.76395153104297
 20
71.05900949376408
 30
0.0
 10
38.79513773713035
 20
71.13650300527732
 30
0.0
 10
38.82691094328889
 20
71.21545513271337
 30
0.0
 10
38.8594121916989
 20
71.29621634684756
 30
0.0
  0
SPLINE
  5
258
330
1F
100
AcDbEntity
  8
0
  6
Continuous
 62
     7
370
    15
100
AcDbSpline
210
0.0
220
0.0
230
1.0
 70
     8
 71
     3
 72
    10
 73
     6
 74
     0
 42
0.000000001
 43
0.00000001
 40
0.0
 40
0.0
 40
0.0
 40
0.0
 40
0.5
 40
0.5
 40
1.0
 40
1.0
 40
1.0
 40
1.0
 10
37.21872289910105
 20
72.26575080029707
 30
0.0
 10
37.02632501956981
 20
72.28291778026824
 30
0.0
 10
36.83697634015221
 20
72.32017289279564
 30
0.0
 10
36.46160010925341
 20
72.41067575169355
 30
0.0
 10
36.27600318194317
 20
72.46425515808794
 30
0.0
 10
36.09159007747959
 20
72.52151686467283
 30
0.0
  0
SPLINE
  5
259
330
1F
100
AcDbEntity
  8
0
  6
Continuous
 62
     7
370
    15
100
AcDbSpline
210
0.0
220
0.0
230
1.0
 70
     8
 71
     3
 72
    12
 73
     8
 74
     0
 42
0.000000001
 43
0.00000001
 40
0.0
 40
0.0
 40
0.0
 40
0.0
 40
0.1923511035445297
 40
0.406341296156136
 40
0.6265473518741823
 40
0.8403920444701283
 40
1.0
 40
1.0
 40
1.0
 40
1.0
 10
37.21872289910099
 20
72.26575080029708
 30
0.0
 10
37.17092287632813
 20
72.24784478040067
 30
0.0
 10
37.0699454301274
 20
72.21001835154412
 30
0.0
 10
36.94986915594721
 20
72.1519935693129
 30
0.0
 10
36.86166584735019
 20
72.09148576357909
 30
0.0
 10
36.81231026648322
 20
72.0353963891633
 30
0.0
 10
36.81122850591454
 20
72.00002954981355
 30
0.0
 10
36.81076617797657
 20
71.98491430307344
 30
0.0
  0
SPLINE
  5
25A
330
1F
100
AcDbEntity
  8
0
  6
Continuous
 62
     7
370
    15
100
AcDbSpline
210
0.0
220
0.0
230
1.0
 70
     8
 71
     3
 72
    11
 73
     7
 74
     0
 42
0.000000001
 43
0.00000001
 40
0.0
 40
0.0
 40
0.0
 40
0.0
 40
0.2360648607412563
 40
0.4689927795503583
 40
0.708694253107289
 40
1.0
 40
1.0
 40
1.0
 40
1.0
 10
39.29498321329433
 20
70.68688022133489
 30
0.0
 10
39.24965891275716
 20
70.6662822571682
 30
0.0
 10
39.15961260250429
 20
70.62536004436073
 30
0.0
 10
38.983485674315
 20
70.56425034262422
 30
0.0
 10
38.76997856497277
 20
70.49921757204997
 30
0.0
 10
38.6022849996111
 20
70.45367736151162
 30
0.0
 10
38.51028983000602
 20
70.42869441488938
 30
0.0
  0
SPLINE
  5
25B
330
1F
100
AcDbEntity
  8
0
  6
Continuous
 62
     7
370
    15
100
AcDbSpline
210
0.0
220
0.0
230
1.0
 70
    24
 71
     3
 72
    14
 73
    10
 74
     0
 42
0.000000001
 43
0.00000001
 40
0.0000247028960008
 40
0.0000247028960008
 40
0.0000247028960008
 40
0.0000247028960008
 40
0.0002681185412821
 40
0.0002681185412821
 40
0.0002681185412821
 40
0.0005362331535614
 40
0.0005362331535614
 40
0.0005362331535614
 40
0.0010234933099797
 40
0.0010234933099797
 40
0.0010234933099797
 40
0.0010234933099797
 10
38.51028983000602
 20
70.42869441488938
 30
0.0
 10
38.52200167455985
 20
70.45779676732782
 30
0.0
 10
38.53386552293816
 20
70.48727682874726
 30
0.0
 10
38.54581725623508
 20
70.51697527232368
 30
0.0
 10
38.55898177546938
 20
70.54968732520982
 30
0.0
 10
38.57225477075332
 20
70.58266892643341
 30
0.0
 10
38.5855932679764
 20
70.61581329113203
 30
0.0
 10
38.60983405019694
 20
70.67604836207443
 30
0.0
 10
38.6342881893635
 20
70.73681359622121
 30
0.0
 10
38.65884200740822
 20
70.79782651892205
 30
0.0
  0
LINE
  5
25C
330
1F
100
AcDbEntity
  8
0
  6
Continuous
 62
     7
370
    15
100
AcDbLine
 10
39.6565811211
 20
94.2880697097
 30
0.0
 11
36.6565811211
 21
94.2880697097
 31
0.0
  0
LINE
  5
25D
330
1F
100
AcDbEntity
  8
0
  6
Continuous
 62
     7
370
    15
100
AcDbLine
 10
36.2580089916
 20
95.5280697097
 30
0.0
 11
36.0772349144
 21
95.5280697097
 31
0.0
  0
LINE
  5
25E
330
1F
100
AcDbEntity
  8
0
  6
Continuous
 62
     7
370
    15
100
AcDbLine
 10
39.6565811211
 20
85.2638246546
 30
0.0
 11
36.6565811211
 21
85.2638246546
 31
0.0
  0
LINE
  5
25F
330
1F
100
AcDbEntity
  8
0
  6
Continuous
 62
     7
370
    15
100
AcDbLine
 10
38.4374664429
 20
84.2638246546
 30
0.0
 11
36.8065811211
 21
84.2638246546
 31
0.0
  0
LINE
  5
260
330
1F
100
AcDbEntity
  8
0
  6
Continuous
 62
     7
370
    15
100
AcDbLine
 10
39.5065811211
 20
65.1783789149
 30
0.0
 11
36.8065811211
 21
65.1783789149
 31
0.0
  0
SPLINE
  5
261
330
1F
100
AcDbEntity
  8
0
  6
Continuous
 62
     7
370
    15
100
AcDbSpline
210
0.0
220
0.0
230
1.0
 70
     8
 71
     3
 72
     8
 73
     4
 74
     0
 42
0.000000001
 43
0.00000001
 40
0.0
 40
0.0
 40
0.0
 40
0.0
 40
1.0
 40
1.0
 40
1.0
 40
1.0
 10
37.24382894343639
 20
67.87474576907611
 30
0.0
 10
37.25916030851803
 20
67.72066058978125
 30
0.0
 10
37.27656838597127
 20
67.5666709573314
 30
0.0
 10
37.29658038307048
 20
67.41279030856401
 30
0.0
  0
SPLINE
  5
262
330
1F
100
AcDbEntity
  8
0
  6
Continuous
 62
     7
370
    15
100
AcDbSpline
210
0.0
220
0.0
230
1.0
 70
     8
 71
     3
 72
     8
 73
     4
 74
     0
 42
0.000000001
 43
0.00000001
 40
0.0
 40
0.0
 40
0.0
 40
0.0
 40
1.0
 40
1.0
 40
1.0
 40
1.0
 10
37.1374570815897
 20
70.03613875829276
 30
0.0
 10
37.14084788012286
 20
69.56444288569821
 30
0.0
 10
37.15549088032304
 20
69.09344568401013
 30
0.0
 10
37.18432288732945
 20
68.62320699666091
 30
0.0
  0
LINE
  5
263
330
1F
100
AcDbEntity
  8
0
  6
Continuous
 62
     7
370
    15
100
AcDbLine
 10
37.5178260958
 20
67.9625560331
 30
0.0
 11
37.2965803831
 21
67.4127903086
 31
0.0
  0
SPLINE
  5
264
330
1F
100
AcDbEntity
  8
0
  6
Continuous
 62
     7
370
    15
100
AcDbSpline
210
0.0
220
0.0
230
1.0
 70
     8
 71
     3
 72
     8
 73
     4
 74
     0
 42
0.000000001
 43
0.00000001
 40
0.0
 40
0.0
 40
0.0
 40
0.0
 40
1.0
 40
1.0
 40
1.0
 40
1.0
 10
39.06666480896934
 20
71.81121111849731
 30
0.0
 10
39.03465057528269
 20
72.1279307355645
 30
0.0
 10
38.99425189172864
 20
72.44209794430951
 30
0.0
 10
38.94024371768332
 20
72.7526778393671
 30
0.0
  0
SPLINE
  5
265
330
1F
100
AcDbEntity
  8
0
  6
Continuous
 62
     7
370
    15
100
AcDbSpline
210
0.0
220
0.0
230
1.0
 70
     8
 71
     3
 72
     8
 73
     4
 74
     0
 42
0.000000001
 43
0.00000001
 40
0.0
 40
0.0
 40
0.0
 40
0.0
 40
1.0
 40
1.0
 40
1.0
 40
1.0
 10
38.78276564566567
 20
73.47333946069566
 30
0.0
 10
38.72160503949565
 20
73.69672475202769
 30
0.0
 10
38.64969448543003
 20
73.91749528152343
 30
0.0
 10
38.54406854389568
 20
74.13091069728425
 30
0.0
  0
SPLINE
  5
266
330
1F
100
AcDbEntity
  8
0
  6
Continuous
 62
     7
370
    15
100
AcDbSpline
210
0.0
220
0.0
230
1.0
 70
     8
 71
     3
 72
    12
 73
     8
 74
     0
 42
0.000000001
 43
0.00000001
 40
0.0
 40
0.0
 40
0.0
 40
0.0
 40
0.25
 40
0.25
 40
0.5
 40
0.5
 40
1.0
 40
1.0
 40
1.0
 40
1.0
 10
37.76909369825085
 20
74.4427887471508
 30
0.0
 10
37.69007624853878
 20
74.3467343243389
 30
0.0
 10
37.63578725945908
 20
74.23902673128634
 30
0.0
 10
37.54119261537472
 20
74.01671070738976
 30
0.0
 10
37.50263145865187
 20
73.90095075067855
 30
0.0
 10
37.40179213398528
 20
73.54841996486388
 30
0.0
 10
37.354876280253
 20
73.30998914557574
 30
0.0
 10
37.31655108146951
 20
73.06987913989417
 30
0.0
  0
LINE
  5
267
330
1F
100
AcDbEntity
  8
0
  6
Continuous
 62
     7
370
    15
100
AcDbLine
 10
38.5440685439
 20
74.1309106973
 30
0.0
 11
37.7690936983
 21
74.4427887472
 31
0.0
  0
LINE
  5
268
330
1F
100
AcDbEntity
  8
0
  6
Continuous
 62
     7
370
    15
100
AcDbLine
 10
39.066664809
 20
71.8112111185
 30
0.0
 11
38.8594121917
 21
71.2962163468
 31
0.0
  0
LINE
  5
269
330
1F
100
AcDbEntity
  8
0
  6
Continuous
 62
     7
370
    15
100
AcDbLine
 10
38.1878697274
 20
59.8893164003
 30
0.0
 11
38.3598666506
 21
60.5791583804
 31
0.0
  0
SPLINE
  5
26A
330
1F
100
AcDbEntity
  8
0
  6
Continuous
 62
     7
370
    15
100
AcDbSpline
210
0.0
220
0.0
230
1.0
 70
     8
 71
     3
 72
     8
 73
     4
 74
     0
 42
0.000000001
 43
0.00000001
 40
0.0
 40
0.0
 40
0.0
 40
0.0
 40
1.0
 40
1.0
 40
1.0
 40
1.0
 10
37.21872289910099
 20
72.26575080029708
 30
0.0
 10
37.17501707521844
 20
71.78213394906678
 30
0.0
 10
37.15247122308995
 20
71.29310614446263
 30
0.0
 10
37.14247853246465
 20
70.80659545322298
 30
0.0
  0
LINE
  5
26B
330
1F
100
AcDbEntity
  8
0
  6
Continuous
 62
     7
370
    15
100
AcDbLine
 10
38.51028983
 20
70.4286944149
 30
0.0
 11
37.8660870866
 21
68.8279375748
 31
0.0
  0
SPLINE
  5
26C
330
1F
100
AcDbEntity
  8
0
  6
Continuous
 62
     7
370
    15
100
AcDbSpline
210
0.0
220
0.0
230
1.0
 70
     8
 71
     3
 72
    10
 73
     6
 74
     0
 42
0.000000001
 43
0.00000001
 40
0.0
 40
0.0
 40
0.0
 40
0.0
 40
0.5
 40
0.5
 40
1.0
 40
1.0
 40
1.0
 40
1.0
 10
34.48834914007396
 20
96.878247436174
 30
0.0
 10
34.77680643566914
 20
96.64413947815848
 30
0.0
 10
35.06680492863577
 20
96.4121887019203
 30
0.0
 10
35.65406979021964
 20
95.95845984322362
 30
0.0
 10
35.95081315193914
 20
95.73594971893185
 30
0.0
 10
36.25800899155538
 20
95.52806970968238
 30
0.0
  0
LINE
  5
26D
330
1F
100
AcDbEntity
  8
0
  6
Continuous
 62
     8
370
    15
100
AcDbLine
 10
41.8450064839
 20
96.8782474362
 30
0.0
 11
41.8335145102
 21
96.8782474362
 31
0.0
  0
LINE
  5
26E
330
1F
100
AcDbEntity
  8
0
  6
Continuous
 62
     8
370
    15
100
AcDbLine
 10
34.3439604831
 20
97.3055057722
 30
0.0
 11
41.969201759
 21
97.3055057722
 31
0.0
  0
CIRCLE
  5
26F
330
1F
100
AcDbEntity
  8
0
  6
Continuous
 62
     7
370
    15
100
AcDbCircle
 10
38.3906066258
 20
115.3218034006
 30
0.0
 40
3.831310318965023
  0
SPLINE
  5
270
330
1F
100
AcDbEntity
  8
0
  6
Continuous
 62
     7
370
    15
100
AcDbSpline
210
0.0
220
0.0
230
1.0
 70
     8
 71
     3
 72
    14
 73
    10
 74
     0
 42
0.000000001
 43
0.00000001
 40
0.0
 40
0.0
 40
0.0
 40
0.0
 40
0.25
 40
0.25
 40
0.5
 40
0.5
 40
0.75
 40
0.75
 40
1.0
 40
1.0
 40
1.0
 40
1.0
 10
36.8960956400068
 20
115.7235807594853
 30
0.0
 10
36.97699588563519
 20
115.6925481212789
 30
0.0
 10
37.04670961518256
 20
115.6374668996866
 30
0.0
 10
37.14440788876773
 20
115.4958117683565
 30
0.0
 10
37.17134902699411
 20
115.4092563788447
 30
0.0
 10
37.1714297475143
 20
115.2374020318085
 30
0.0
 10
37.14438532434069
 20
115.1505225898613
 30
0.0
 10
37.04709101784952
 20
115.00923043204
 30
0.0
 10
36.97701157854564
 20
114.9537133938873
 30
0.0
 10
36.89609564000681
 20
114.9226747360154
 30
0.0
  0
SPLINE
  5
271
330
1F
100
AcDbEntity
  8
0
  6
Continuous
 62
     7
370
    15
100
AcDbSpline
210
0.0
220
0.0
230
1.0
 70
     8
 71
     3
 72
    10
 73
     6
 74
     0
 42
0.000000001
 43
0.00000001
 40
0.0
 40
0.0
 40
0.0
 40
0.0
 40
0.4999999999999998
 40
0.4999999999999998
 40
1.0
 40
1.0
 40
1.0
 40
1.0
 10
36.89609564000682
 20
114.9226747360154
 30
0.0
 10
36.83066267426848
 20
114.7808723181606
 30
0.0
 10
36.83784162558877
 20
114.6086354156271
 30
0.0
 10
36.99557819268792
 20
114.3355289520457
 30
0.0
 10
37.1409672082408
 20
114.2433099062188
 30
0.0
 10
37.29654865174174
 20
114.2290697736466
 30
0.0
  0
SPLINE
  5
272
330
1F
100
AcDbEntity
  8
0
  6
Continuous
 62
     7
370
    15
100
AcDbSpline
210
0.0
220
0.0
230
1.0
 70
     8
 71
     3
 72
    14
 73
    10
 74
     0
 42
0.000000001
 43
0.00000001
 40
0.0
 40
0.0
 40
0.0
 40
0.0
 40
0.25
 40
0.25
 40
0.5
 40
0.5
 40
0.75
 40
0.75
 40
1.0
 40
1.0
 40
1.0
 40
1.0
 10
37.29654865174174
 20
114.2290697736466
 30
0.0
 10
37.36323771235299
 20
114.2830457946315
 30
0.0
 10
37.44559696488466
 20
114.316297366895
 30
0.0
 10
37.61876108871837
 20
114.3301689181058
 30
0.0
 10
37.70580518090307
 20
114.3104026854755
 30
0.0
 10
37.85531551333862
 20
114.2242788888799
 30
0.0
 10
37.91673956520358
 20
114.1576481067336
 30
0.0
 10
37.9905312901924
 20
114.0029264207959
 30
0.0
 10
38.00363801124313
 20
113.9138924480617
 30
0.0
 10
37.99015361411061
 20
113.8286167619116
 30
0.0
  0
SPLINE
  5
273
330
1F
100
AcDbEntity
  8
0
  6
Continuous
 62
     7
370
    15
100
AcDbSpline
210
0.0
220
0.0
230
1.0
 70
     8
 71
     3
 72
    10
 73
     6
 74
     0
 42
0.000000001
 43
0.00000001
 40
0.0
 40
0.0
 40
0.0
 40
0.0
 40
0.5
 40
0.5
 40
1.0
 40
1.0
 40
1.0
 40
1.0
 10
37.99015361411061
 20
113.8286167619116
 30
0.0
 10
38.08092728351197
 20
113.700078029087
 30
0.0
 10
38.23366490001531
 20
113.6213139869578
 30
0.0
 10
38.546666055187
 20
113.6210323305134
 30
0.0
 10
38.7002814282496
 20
113.700071600386
 30
0.0
 10
38.79105963758045
 20
113.8286167619117
 30
0.0
  0
SPLINE
  5
274
330
1F
100
AcDbEntity
  8
0
  6
Continuous
 62
     7
370
    15
100
AcDbSpline
210
0.0
220
0.0
230
1.0
 70
     8
 71
     3
 72
    14
 73
    10
 74
     0
 42
0.000000001
 43
0.00000001
 40
0.0
 40
0.0
 40
0.0
 40
0.0
 40
0.25
 40
0.25
 40
0.5
 40
0.5
 40
0.75
 40
0.75
 40
1.0
 40
1.0
 40
1.0
 40
1.0
 10
38.79105963758045
 20
113.8286167619117
 30
0.0
 10
38.77803950123765
 20
113.9132913096493
 30
0.0
 10
38.79071539956654
 20
114.0010391905513
 30
0.0
 10
38.86540523799557
 20
114.1573385321118
 30
0.0
 10
38.92609687321747
 20
114.2227597771154
 30
0.0
 10
39.07506086377073
 20
114.3089430240942
 30
0.0
 10
39.16335895025991
 20
114.3288977755207
 30
0.0
 10
39.33392117982739
 20
114.3158076360494
 30
0.0
 10
39.41756229473985
 20
114.2829091296376
 30
0.0
 10
39.48466459994938
 20
114.2290697736465
 30
0.0
  0
SPLINE
  5
275
330
1F
100
AcDbEntity
  8
0
  6
Continuous
 62
     7
370
    15
100
AcDbSpline
210
0.0
220
0.0
230
1.0
 70
     8
 71
     3
 72
    10
 73
     6
 74
     0
 42
0.000000001
 43
0.00000001
 40
0.0
 40
0.0
 40
0.0
 40
0.0
 40
0.5
 40
0.5
 40
1.0
 40
1.0
 40
1.0
 40
1.0
 10
39.48466459994987
 20
114.2290697736466
 30
0.0
 10
39.64029606128444
 20
114.2433141951929
 30
0.0
 10
39.78565017385552
 20
114.335470305707
 30
0.0
 10
39.94348766092592
 20
114.6089193342516
 30
0.0
 10
39.95052724039843
 20
114.7809235791215
 30
0.0
 10
39.88511761168423
 20
114.9226747360155
 30
0.0
  0
SPLINE
  5
276
330
1F
100
AcDbEntity
  8
0
  6
Continuous
 62
     7
370
    15
100
AcDbSpline
210
0.0
220
0.0
230
1.0
 70
     8
 71
     3
 72
    14
 73
    10
 74
     0
 42
0.000000001
 43
0.00000001
 40
0.0
 40
0.0
 40
0.0
 40
0.0
 40
0.2499999999999999
 40
0.2499999999999999
 40
0.4999999999999999
 40
0.4999999999999999
 40
0.7499999999999999
 40
0.7499999999999999
 40
1.0
 40
1.0
 40
1.0
 40
1.0
 10
39.88511761168424
 20
114.9226747360155
 30
0.0
 10
39.80421723022464
 20
114.9537074708269
 30
0.0
 10
39.73450293762445
 20
115.008789105639
 30
0.0
 10
39.6368041744836
 20
115.1504463146789
 30
0.0
 10
39.60986361096901
 20
115.2370027588951
 30
0.0
 10
39.60978439717952
 20
115.4088573427451
 30
0.0
 10
39.63682943564884
 20
115.4957355444839
 30
0.0
 10
39.73412306037861
 20
115.6370254537059
 30
0.0
 10
39.80420188067319
 20
115.6925421367095
 30
0.0
 10
39.88511761168424
 20
115.7235807594853
 30
0.0
  0
SPLINE
  5
277
330
1F
100
AcDbEntity
  8
0
  6
Continuous
 62
     7
370
    15
100
AcDbSpline
210
0.0
220
0.0
230
1.0
 70
     8
 71
     3
 72
    10
 73
     6
 74
     0
 42
0.000000001
 43
0.00000001
 40
0.0
 40
0.0
 40
0.0
 40
0.0
 40
0.5000000000000001
 40
0.5000000000000001
 40
1.0
 40
1.0
 40
1.0
 40
1.0
 10
39.88511761168424
 20
115.7235807594853
 30
0.0
 10
39.95055001613618
 20
115.8653819609537
 30
0.0
 10
39.94337235156573
 20
116.0376173806385
 30
0.0
 10
39.78563657804038
 20
116.3107253565216
 30
0.0
 10
39.64024718470849
 20
116.4029454848243
 30
0.0
 10
39.4846645999493
 20
116.4171857218542
 30
0.0
  0
SPLINE
  5
278
330
1F
100
AcDbEntity
  8
0
  6
Continuous
 62
     7
370
    15
100
AcDbSpline
210
0.0
220
0.0
230
1.0
 70
     8
 71
     3
 72
    14
 73
    10
 74
     0
 42
0.000000001
 43
0.00000001
 40
0.0
 40
0.0
 40
0.0
 40
0.0
 40
0.25
 40
0.25
 40
0.5
 40
0.5
 40
0.75
 40
0.75
 40
1.0
 40
1.0
 40
1.0
 40
1.0
 10
39.4846645999493
 20
116.4171857218542
 30
0.0
 10
39.41798771928553
 20
116.3631649776571
 30
0.0
 10
39.33562231612375
 20
116.3298738731633
 30
0.0
 10
39.16241401491628
 20
116.3159563696389
 30
0.0
 10
39.07535405808448
 20
116.3357153813169
 30
0.0
 10
38.92580332543157
 20
116.4218631297254
 30
0.0
 10
38.86437805068278
 20
116.4885133299323
 30
0.0
 10
38.7906068372145
 20
116.6432897111478
 30
0.0
 10
38.77753052322882
 20
116.7323535944159
 30
0.0
 10
38.79105963758045
 20
116.8176387335891
 30
0.0
  0
SPLINE
  5
279
330
1F
100
AcDbEntity
  8
0
  6
Continuous
 62
     7
370
    15
100
AcDbSpline
210
0.0
220
0.0
230
1.0
 70
     8
 71
     3
 72
    10
 73
     6
 74
     0
 42
0.000000001
 43
0.00000001
 40
0.0
 40
0.0
 40
0.0
 40
0.0
 40
0.5
 40
0.5
 40
1.0
 40
1.0
 40
1.0
 40
1.0
 10
38.79105963758045
 20
116.8176387335891
 30
0.0
 10
38.70028610656657
 20
116.9461772704521
 30
0.0
 10
38.54754851194846
 20
117.0249415061328
 30
0.0
 10
38.23454705042671
 20
117.0252231673846
 30
0.0
 10
38.08093168613014
 20
116.9461837006771
 30
0.0
 10
37.99015361411059
 20
116.8176387335891
 30
0.0
  0
SPLINE
  5
27A
330
1F
100
AcDbEntity
  8
0
  6
Continuous
 62
     7
370
    15
100
AcDbSpline
210
0.0
220
0.0
230
1.0
 70
     8
 71
     3
 72
    14
 73
    10
 74
     0
 42
0.000000001
 43
0.00000001
 40
0.0
 40
0.0
 40
0.0
 40
0.0
 40
0.2499999999999998
 40
0.2499999999999998
 40
0.4999999999999997
 40
0.4999999999999997
 40
0.7499999999999998
 40
0.7499999999999998
 40
1.0
 40
1.0
 40
1.0
 40
1.0
 10
37.99015361411059
 20
116.8176387335891
 30
0.0
 10
38.00362231433473
 20
116.7327288323443
 30
0.0
 10
37.99115210666936
 20
116.6447354581634
 30
0.0
 10
37.91682718809911
 20
116.4882079561772
 30
0.0
 10
37.85591891684859
 20
116.4223488038935
 30
0.0
 10
37.70675255246463
 20
116.3360462407829
 30
0.0
 10
37.61814691134645
 20
116.3161156077184
 30
0.0
 10
37.44727578986924
 20
116.3296366796163
 30
0.0
 10
37.3636147584143
 20
116.3628507659016
 30
0.0
 10
37.29654865174173
 20
116.4171857218541
 30
0.0
  0
SPLINE
  5
27B
330
1F
100
AcDbEntity
  8
0
  6
Continuous
 62
     7
370
    15
100
AcDbSpline
210
0.0
220
0.0
230
1.0
 70
     8
 71
     3
 72
    10
 73
     6
 74
     0
 42
0.000000001
 43
0.00000001
 40
0.0
 40
0.0
 40
0.0
 40
0.0
 40
0.5
 40
0.5
 40
1.0
 40
1.0
 40
1.0
 40
1.0
 10
37.29654865174167
 20
116.4171857218541
 30
0.0
 10
37.14091621475069
 20
116.4029409219254
 30
0.0
 10
36.99556155877986
 20
116.3107830548377
 30
0.0
 10
36.83772569648506
 20
116.0373339760753
 30
0.0
 10
36.83068688389383
 20
115.865330711685
 30
0.0
 10
36.89609564000681
 20
115.7235807594853
 30
0.0
  0
CIRCLE
  5
27C
330
1F
100
AcDbEntity
  8
0
  6
Continuous
 62
     7
370
    15
100
AcDbCircle
 10
38.3906066258
 20
115.3218034006
 30
0.0
 40
1.954873214077864
  0
CIRCLE
  5
27D
330
1F
100
AcDbEntity
  8
0
  6
Continuous
 62
     7
370
    15
100
AcDbCircle
 10
38.3906066258
 20
115.3218034006
 30
0.0
 40
3.049999999999997
  0
CIRCLE
  5
27E
330
1F
100
AcDbEntity
  8
0
  6
Continuous
 62
     7
370
    15
100
AcDbCircle
 10
38.3906066258
 20
115.3218034006
 30
0.0
 40
3.812620637930053
  0
INSERT
  5
28A
330
1F
100
AcDbEntity
  8
0
  6
Continuous
 62
     7
370
     0
100
AcDbBlockReference
  2
SW_CENTERMARKSYMBOL_0
 10
38.3906066258
 20
115.3218034006
 30
0.0
  0
ENDSEC
  0
SECTION
  2
OBJECTS
  0
DICTIONARY
  5
C
330
0
100
AcDbDictionary
281
     1
  3
ACAD_GROUP
350
D
  3
ACAD_LAYOUT
350
1A
  3
ACAD_MLINESTYLE
350
17
  3
ACAD_PLOTSETTINGS
350
19
  3
ACAD_PLOTSTYLENAME
350
E
  3
ACAD_SCALELIST
350
47
  0
DICTIONARY
  5
D
102
{ACAD_REACTORS
330
C
102
}
330
C
100
AcDbDictionary
281
     1
  0
DICTIONARY
  5
1A
102
{ACAD_REACTORS
330
C
102
}
330
C
100
AcDbDictionary
281
     1
  3
Layout1
350
1E
  3
Layout2
350
26
  3
Model
350
22
  0
DICTIONARY
  5
17
102
{ACAD_REACTORS
330
C
102
}
330
C
100
AcDbDictionary
281
     1
  3
Standard
350
18
  0
DICTIONARY
  5
19
102
{ACAD_REACTORS
330
C
102
}
330
C
100
AcDbDictionary
281
     1
  0
ACDBDICTIONARYWDFLT
  5
E
102
{ACAD_REACTORS
330
C
102
}
330
C
100
AcDbDictionary
281
     1
  3
Normal
350
F
100
AcDbDictionaryWithDefault
340
F
  0
DICTIONARY
  5
47
102
{ACAD_REACTORS
330
C
102
}
330
C
100
AcDbDictionary
281
     1
  3
A0
350
48
  3
A1
350
49
  3
A2
350
4A
  3
A3
350
4B
  3
A4
350
4C
  3
A5
350
4D
  3
A6
350
4E
  3
A7
350
4F
  3
A8
350
50
  3
A9
350
51
  3
B0
350
52
  3
B1
350
53
  3
B2
350
54
  3
B3
350
55
  3
B4
350
56
  3
B5
350
57
  3
B6
350
58
  3
B7
350
59
  3
B8
350
5A
  3
B9
350
5B
  3
C0
350
5C
  3
C1
350
5D
  3
C2
350
5E
  3
C3
350
5F
  3
C4
350
60
  3
C5
350
61
  3
C6
350
62
  3
C7
350
63
  3
C8
350
64
  3
C9
350
65
  3
D0
350
66
  3
D1
350
67
  3
D2
350
68
  0
LAYOUT
  5
1E
102
{ACAD_REACTORS
330
1A
102
}
330
1A
100
AcDbPlotSettings
  1

  2
none_device
  4

  6

 40
0.0
 41
0.0
 42
0.0
 43
0.0
 44
0.0
 45
0.0
 46
0.0
 47
0.0
 48
0.0
 49
0.0
140
0.0
141
0.0
142
1.0
143
1.0
 70
   688
 72
     1
 73
     0
 74
     5
  7

 75
    16
147
1.0
148
0.0
149
0.0
100
AcDbLayout
  1
Layout1
 70
     1
 71
     1
 10
0.0
 20
0.0
 11
420.0
 21
297.0
 12
0.0
 22
0.0
 32
0.0
 14
1.0000000000E+20
 24
1.0000000000E+20
 34
1.0000000000E+20
 15
-1.0000000000E+20
 25
-1.0000000000E+20
 35
-1.0000000000E+20
146
0.0
 13
0.0
 23
0.0
 33
0.0
 16
1.0
 26
0.0
 36
0.0
 17
0.0
 27
1.0
 37
0.0
 76
     0
330
1B
  0
LAYOUT
  5
26
102
{ACAD_REACTORS
330
1A
102
}
330
1A
100
AcDbPlotSettings
  1

  2
none_device
  4

  6

 40
0.0
 41
0.0
 42
0.0
 43
0.0
 44
0.0
 45
0.0
 46
0.0
 47
0.0
 48
0.0
 49
0.0
140
0.0
141
0.0
142
1.0
143
1.0
 70
   688
 72
     1
 73
     0
 74
     5
  7

 75
    16
147
1.0
148
0.0
149
0.0
100
AcDbLayout
  1
Layout2
 70
     1
 71
     2
 10
0.0
 20
0.0
 11
0.0
 21
0.0
 12
0.0
 22
0.0
 32
0.0
 14
0.0
 24
0.0
 34
0.0
 15
0.0
 25
0.0
 35
0.0
146
0.0
 13
0.0
 23
0.0
 33
0.0
 16
1.0
 26
0.0
 36
0.0
 17
0.0
 27
1.0
 37
0.0
 76
     0
330
23
  0
LAYOUT
  5
22
102
{ACAD_REACTORS
330
1A
102
}
330
1A
100
AcDbPlotSettings
  1

  2
none_device
  4
Letter_(8.50_x_11.00_Inches)
  6

 40
6.35
 41
6.35
 42
6.35000508
 43
6.35000508
 44
215.9
 45
279.4
 46
0.0
 47
0.0
 48
0.0
 49
0.0
140
0.0
141
0.0
142
1.0
143
1.0
 70
  1712
 72
     1
 73
     0
 74
     0
  7

 75
     0
147
1.0
148
0.0
149
0.0
100
AcDbLayout
  1
Model
 70
     1
 71
     0
 10
0.0
 20
0.0
 11
279.4
 21
215.9
 12
0.0
 22
0.0
 32
0.0
 14
0.0
 24
0.0
 34
0.0
 15
279.4
 25
215.9
 35
0.0
146
0.0
 13
0.0
 23
0.0
 33
0.0
 16
1.0
 26
0.0
 36
0.0
 17
0.0
 27
1.0
 37
0.0
 76
     0
330
1F
331
29
  0
MLINESTYLE
  5
18
102
{ACAD_REACTORS
330
17
102
}
330
17
100
AcDbMlineStyle
  2
Standard
 70
     0
  3

 62
   256
 51
90.0
 52
90.0
 71
     2
 49
0.5
 62
   256
  6
BYLAYER
 49
-0.5
 62
   256
  6
BYLAYER
  0
ACDBPLACEHOLDER
  5
F
102
{ACAD_REACTORS
330
E
102
}
330
E
  0
SCALE
  5
48
102
{ACAD_REACTORS
330
47
102
}
330
47
100
AcDbScale
 70
     0
300
1:1
140
1.0
141
1.0
290
     1
  0
SCALE
  5
49
102
{ACAD_REACTORS
330
47
102
}
330
47
100
AcDbScale
 70
     0
300
1:2
140
1.0
141
2.0
290
     0
  0
SCALE
  5
4A
102
{ACAD_REACTORS
330
47
102
}
330
47
100
AcDbScale
 70
     0
300
1:4
140
1.0
141
4.0
290
     0
  0
SCALE
  5
4B
102
{ACAD_REACTORS
330
47
102
}
330
47
100
AcDbScale
 70
     0
300
1:5
140
1.0
141
5.0
290
     0
  0
SCALE
  5
4C
102
{ACAD_REACTORS
330
47
102
}
330
47
100
AcDbScale
 70
     0
300
1:8
140
1.0
141
8.0
290
     0
  0
SCALE
  5
4D
102
{ACAD_REACTORS
330
47
102
}
330
47
100
AcDbScale
 70
     0
300
1:10
140
1.0
141
10.0
290
     0
  0
SCALE
  5
4E
102
{ACAD_REACTORS
330
47
102
}
330
47
100
AcDbScale
 70
     0
300
1:16
140
1.0
141
16.0
290
     0
  0
SCALE
  5
4F
102
{ACAD_REACTORS
330
47
102
}
330
47
100
AcDbScale
 70
     0
300
1:20
140
1.0
141
20.0
290
     0
  0
SCALE
  5
50
102
{ACAD_REACTORS
330
47
102
}
330
47
100
AcDbScale
 70
     0
300
1:30
140
1.0
141
30.0
290
     0
  0
SCALE
  5
51
102
{ACAD_REACTORS
330
47
102
}
330
47
100
AcDbScale
 70
     0
300
1:40
140
1.0
141
40.0
290
     0
  0
SCALE
  5
52
102
{ACAD_REACTORS
330
47
102
}
330
47
100
AcDbScale
 70
     0
300
1:50
140
1.0
141
50.0
290
     0
  0
SCALE
  5
53
102
{ACAD_REACTORS
330
47
102
}
330
47
100
AcDbScale
 70
     0
300
1:100
140
1.0
141
100.0
290
     0
  0
SCALE
  5
54
102
{ACAD_REACTORS
330
47
102
}
330
47
100
AcDbScale
 70
     0
300
2:1
140
2.0
141
1.0
290
     0
  0
SCALE
  5
55
102
{ACAD_REACTORS
330
47
102
}
330
47
100
AcDbScale
 70
     0
300
4:1
140
4.0
141
1.0
290
     0
  0
SCALE
  5
56
102
{ACAD_REACTORS
330
47
102
}
330
47
100
AcDbScale
 70
     0
300
8:1
140
8.0
141
1.0
290
     0
  0
SCALE
  5
57
102
{ACAD_REACTORS
330
47
102
}
330
47
100
AcDbScale
 70
     0
300
10:1
140
10.0
141
1.0
290
     0
  0
SCALE
  5
58
102
{ACAD_REACTORS
330
47
102
}
330
47
100
AcDbScale
 70
     0
300
100:1
140
100.0
141
1.0
290
     0
  0
SCALE
  5
59
102
{ACAD_REACTORS
330
47
102
}
330
47
100
AcDbScale
 70
     0
300
1/128" = 1'-0"
140
0.0078125
141
12.0
290
     0
  0
SCALE
  5
5A
102
{ACAD_REACTORS
330
47
102
}
330
47
100
AcDbScale
 70
     0
300
1/64" = 1'-0"
140
0.015625
141
12.0
290
     0
  0
SCALE
  5
5B
102
{ACAD_REACTORS
330
47
102
}
330
47
100
AcDbScale
 70
     0
300
1/32" = 1'-0"
140
0.03125
141
12.0
290
     0
  0
SCALE
  5
5C
102
{ACAD_REACTORS
330
47
102
}
330
47
100
AcDbScale
 70
     0
300
1/16" = 1'-0"
140
0.0625
141
12.0
290
     0
  0
SCALE
  5
5D
102
{ACAD_REACTORS
330
47
102
}
330
47
100
AcDbScale
 70
     0
300
3/32" = 1'-0"
140
0.09375
141
12.0
290
     0
  0
SCALE
  5
5E
102
{ACAD_REACTORS
330
47
102
}
330
47
100
AcDbScale
 70
     0
300
1/8" = 1'-0"
140
0.125
141
12.0
290
     0
  0
SCALE
  5
5F
102
{ACAD_REACTORS
330
47
102
}
330
47
100
AcDbScale
 70
     0
300
3/16" = 1'-0"
140
0.1875
141
12.0
290
     0
  0
SCALE
  5
60
102
{ACAD_REACTORS
330
47
102
}
330
47
100
AcDbScale
 70
     0
300
1/4" = 1'-0"
140
0.25
141
12.0
290
     0
  0
SCALE
  5
61
102
{ACAD_REACTORS
330
47
102
}
330
47
100
AcDbScale
 70
     0
300
3/8" = 1'-0"
140
0.375
141
12.0
290
     0
  0
SCALE
  5
62
102
{ACAD_REACTORS
330
47
102
}
330
47
100
AcDbScale
 70
     0
300
1/2" = 1'-0"
140
0.5
141
12.0
290
     0
  0
SCALE
  5
63
102
{ACAD_REACTORS
330
47
102
}
330
47
100
AcDbScale
 70
     0
300
3/4" = 1'-0"
140
0.75
141
12.0
290
     0
  0
SCALE
  5
64
102
{ACAD_REACTORS
330
47
102
}
330
47
100
AcDbScale
 70
     0
300
1" = 1'-0"
140
1.0
141
12.0
290
     0
  0
SCALE
  5
65
102
{ACAD_REACTORS
330
47
102
}
330
47
100
AcDbScale
 70
     0
300
1-1/2" = 1'-0"
140
1.5
141
12.0
290
     0
  0
SCALE
  5
66
102
{ACAD_REACTORS
330
47
102
}
330
47
100
AcDbScale
 70
     0
300
3" = 1'-0"
140
3.0
141
12.0
290
     0
  0
SCALE
  5
67
102
{ACAD_REACTORS
330
47
102
}
330
47
100
AcDbScale
 70
     0
300
6" = 1'-0"
140
6.0
141
12.0
290
     0
  0
SCALE
  5
68
102
{ACAD_REACTORS
330
47
102
}
330
47
100
AcDbScale
 70
     0
300
1'-0" = 1'-0"
140
12.0
141
12.0
290
     0
  0
ENDSEC
  0
EOF
